Seribu Makna Cinta Dunia

O-two

Genero:

Tablatura

This tab created by Ahmad Muammar. (muammar193@gmail.com)
Any problem, bug,mistake, misspelling, comment or improvement please email to me
or add my facebook(the same email).

Band : O-Two (http://www.facebook.com/otwoband) (http://www.myspace.com/otwoband)
Song : Seribu Makna Cinta Dunia
Album : Evolusi
TAB : Whole song
Tuning : EADGBe
Guitar 1 : Lead Guitar
Guitar 2 : Rhythm Guitar

************************************

| / slide up
| \ slide down
| h hammer-on
| p pull-off
| ~ vibrato
| + harmonic
| x Mute note
| b Bend
| pb Pre-bend
| br Bend release
| pbr Pre-bend release
| brb Bend release bend

************************************

Intro

Guitar 1

[tab]e|------------------------------------|
B|------------------------------------|
G|-2-4-4-2-2-4-4-2-4-4-2-2-5-5-4-2-0--|
D|-0-0-0-0-0-0-0-0-0-0-0-0-0-0-0-0-0--|
A|------------------------------------|
E|------------------------------------|[/tab]

[tab]e|---------------------------------------|
B|-2-4-4-2-2-4-4-2-4-4-2-2-----2-4-2-0---|
G|-0-0-0-0-0-0-0-0-0-0-0-0-----0-0-0-0---|
D|---------------------------------------|
A|---------------------------------------|
E|---------------------------------------|[/tab]

[tab]e|---------------------------------------|
B|---------------------------------------|
G|-2-4-4-2-2-4-4-2-4-4-2-2-5-5-4-4-4-----|
D|-2-2-2-2-2-2-2-2-2-2-2-2-2-2-2-2-2-----|
A|---------------------------------------|
E|---------------------------------------|[/tab]

[tab]e|----------------------------------|
B|----------------------------------|
G|-2-2-2-2-2--0-0-0-0----------4----|
D|-0-0-0-0-0--0-0-0-0---4444---5----|
A|----------------------5555--------|
E|----------------------------------|[/tab]

Guitar 2

Just play chord G D Em D

Gemuruh rasa dihatimu...

[tab] D Em D
e|--2--2222--------0--0000-------2--2222--22-2---2----|
B|--3--3333--------0--0000-------3--3333--33-3---3----|
G|--2--2222--------0--0000-------2--2222--22-2---2----|
D|-----------------2--2222----------------------------|
A|-----------------2--2222----------------------------|
E|-----------------0--0000----------------------------|[/tab]

[tab] G D Em
**************** **************** ************
e|-----------------------------------------------------------|
B|-----------------------------------------------------------|
G|-----------------------------------------------------------|
D|---------------------88888888888888888------101010101010---|
A|--5555555555555555---55555555555555555------888888888888---|
E|--3333333333333333-----------------------------------------|[/tab]


[tab] D C D
******** ******** *******
e|----------------------------------------------|
B|----------------------------------------------|
G|----------------------------------------------|
D|-88888888---55555555---88888888---------------|
A|-55555555---33333333---55555555---------------|
E|----------------------------------------------|[/tab]

Pejamkanlah matamu...

[tab]e|--7-----------8----3------0---------------5----|
B|--8------7----8----3------0------3----1---1----|
G|--9------7----9----4------0------5----0---0----|
D|--9------7----10---5------2------5----2---4----|
A|---------5----10---5------2-----------3---5----|
E|--------------------------0--------------------|[/tab]

[tab] G D Em
e|-----------------------------------------------------------|
B|-----------------------------------------------------------|
G|-----------------------------------------------------------|
D|---------------------88888888888888888------101010101010---|
A|--5555555555555555---55555555555555555------888888888888---|
E|--3333333333333333-----------------------------------------|[/tab]

[tab] D C D
e|----------------------------------------------|
B|----------------------------------------------|
G|----------------------------------------------|
D|-88888888---55555555---88888888---------------|
A|-55555555---33333333---55555555---------------|
E|----------------------------------------------|[/tab]

SOLO

[tab] G D
e|----------------------------------------------------|
B|---------------------------------8\10-10------------|
G|-2h4-4--\7-4-2-----2h4-4-\7--9-7---------11--9--7---|
D|----------------------------------------------------|
A|----------------------------------------------------|
E|----------------------------------------------------|[/tab]

[tab] Em
e|------------------------------------------------------------|
B|-8h10--10--\12--10---------10---12--12-12--13---12-10-------|
G|------------------12-----12--12-----------------------12----|
D|------------------------------------------------------------|
A|------------------------------------------------------------|
E|------------------------------------------------------------|[/tab]
[tab] D
e|----------------------------------------------------|
B|--------10--10-10-----------------------------------|
G|-12b---------------12-12-12--11-11-11-----11-9-12---|
D|-----12---------------------------------------------|
A|----------------------------------------------------|
E|----------------------------------------------------|[/tab]


Heavy (Distortion)

[tab]e|-------------------------------------------------------------------------|
B|-------------------------------------------------------------------------|
G|----------------------8-8-8-8-8-8-8-8-8---5-5-5-5-5-5-5-5-5--------------|
D|--2-2-2-2-2-2-2-2-2---8-8-8-8-8-8-8-8-8---5-5-5-5-5-5-5-5-5---55----55---|
A|--2-2-2-2-2-2-2-2-2---5-5-5-5-5-5-5-5-5---3-3-3-3-3-3-3-3-3---55----55---|
E|--0-0-0-0-0-0-0-0-0---5-5-5-5-5-5-5-5-5---3-3-3-3-3-3-3-3-3---33----35---|[/tab]

[tab]e|-------------------------------------------------------------------------|
B|-------------------------------------------------------------------------|
G|----------------------8-8-8-8-8-8-8-8-8---5-5-5-5-5-5-5-5-5---8---888----|
D|--2-2-2-2-2-2-2-2-2---8-8-8-8-8-8-8-8-8---5-5-5-5-5-5-5-5-5---8---888----|
A|--2-2-2-2-2-2-2-2-2---5-5-5-5-5-5-5-5-5---3-3-3-3-3-3-3-3-3---5---555----|
E|--0-0-0-0-0-0-0-0-0---5-5-5-5-5-5-5-5-5---3-3-3-3-3-3-3-3-3---5---555----|[/tab]


[tab] G D Em
e|-----------------------------------------------------------|
B|-----------------------------------------------------------|
G|-----------------------------------------------------------|
D|---------------------88888888888888888------101010101010---|
A|--5555555555555555---55555555555555555------888888888888---|
E|--3333333333333333-----------------------------------------|[/tab]

[tab] D C D
e|----------------------------------------------|
B|----------------------------------------------|
G|----------------------------------------------|
D|-88888888---55555555---88888888---------------| Repeat "Lalalala"
A|-55555555---33333333---55555555---------------|
E|----------------------------------------------| [/tab]


Outro :

[tab]e|-------------|
B|-13-12-10-8--|
G|-------------|
D|-------------| 2x
A|-------------|
E|-------------|[/tab]

[tab]e|-----------------|
B|-13-12-10-8---5--|
G|-----------------|
D|-----------------|
A|-----------------|
E|-----------------|[/tab]

Guitar 2

[tab]e|--3--3--------0---|
B|--3--3--7--7--0---|
G|--4--4--7--7--0---|
D|--5--5--7--7--2---|
A|--5--5--5--5--2---|
E|--------------0---|[/tab]