Pequeña Cosa Bella

Los Vikings

Genero:

Tablatura

intro..

G Bm E7
Hoy tomo mi guitarra y toco por ti
C G
no sé tocar siquiera esta es la ves primera
D riff 2
mas toco por ti.

G Bm E7
Mi corazon hoy canta mi vos está alegre
C
amore amore amore
G D riff 2
tan solo se decirte mas tu comprenderas

G
Los prados tienen flores
Bm
que huelen a tí;
C G
podria hoy morirme despues de haberte visto
D riff 2
no pido ya mas.

Coro:
C D
primera cosa bella que encuentro hoy en mi vida
G
ha sido to sonrisa has sido tu
C
alfin tengo una estrella
D G D7
mi noche se ilumina el sol enamorado de su luz,de su luz

G Bm E7
Mi corazon hoy canta mi vos está alegre
C
amore amore amore
G D riff 2
tan solo se decirte mas tu comprenderas

G
Los prados tienen flores
Bm
que huelen a tí;
C G
podria hoy morirme despues de haberte visto
D riff 2
no pido ya mas.

Coro:
C D
primera cosa bella que encuentro hoy en mi vida
G
ha sido to sonrisa has sido tu
C
alfin tengo una estrella
D G D7
mi noche se ilumina el sol enamorado de su luz,de su luz

G Bm E7
Mi corazon hoy canta mi vos está alegre
C
amore amore amore
G D riff 2
tan solo se decirte mas tu comprenderas
C G
mas tu comprenderaaaaaas

riff 1 (intro)

1)------3---3---3----3--3I---3---3---3----3--3I
2)------0---0---0----0--0I---0---0---0----0--0I
3)------0---0---0----0--0I---0---0---0----0--0I
4)-----------------------I--------------------I
5)--------4---2----------I-----4---2----------I
6)----3-------------3----I-3-------------3----I


riff 2

1)----2--------2----3-2-----0-----2--------------I
2)----3---3----3----3-------3-----3--------------I
3)----2---2--2----2-------2-----2----------------I
4)----0---0--------------------------------------I
5)-----------------------------------------------I
6)-----------------------------------------------I

ESTA CANCIÓN LA SAQUE UN DIA QUE ESTABA MUY TRISTE Y LA INSPIRACION ME VINO Y SALIÓ
SE A DEDICO A E MEJOR AMIGA J.M.P.C.

L.F.G