Melodía Para Ti

Los Vikings

Genero:

Tablatura

Hola gente esta es una colaboración de un grupo
que hizo historia en el Salvador.
Espero les guste.
Comentarios y sugerencias a daviddominguezpalacios@gmail.com



*Nota: Les dejare dos formas de hacer el solo
Utilizaremos el Capo en el segundo traste para la parte rítmica.
Para las tabs pueden hacerlo con o sin capo, siempre respetando
el número del traste.
Disfruten.




Intro: D E G D
D E Em D



D E G D
e--4-4-|-2-2-|-5-5-|-4-4-|
B------|-----|-----|-----|
G------|-----|-----|-----|

D E Em D
e--4-4-|-2-2-|-2-2-|-----|
B------|-----|-----|--5--|
G------|-----|-----|-----|


D G
Para tí,
D G
voy cantando
D F#m G A
por los campos va mi susurro de amor


D G
con el viento,
D G
caminando
D F#m G A
y pensando en tí cantaré la canción


G F#m Em D
Que me hace soñar como nunca imaginé
G F#m Em
y tus labios yo siento besar,
G F#m Em
yo me siento feliz al cantar


D G
me hace pensar en tí,
D G
y soy felíz así
D F#m G A
oh soy felíz asi, asiiiiii
D
oh que felicidad.


D E G D
D E Em D

D E G D
e--4-4-|-2-2-|-5-5-|-4-4-|
B------|-----|-----|-----|
G------|-----|-----|-----|

D E Em D
e--4-4-|-2-2-|-2-2-|-----|
B------|-----|-----|--5--|
G------|-----|-----|-----|


D G
Al mirarte,
D G
no puedo hablarte
D F#m G A
solo rio como todos los que rien de amor


D G
Tengo miedo
D G
De estar junto a tí
D F#m G A
Y alejandome así cantaré la canción


G F#m Em D
Que me hace soñar como nunca imaginé
G F#m Em
y tus labios yo siento besar,
G F#m Em
yo me siento feliz al cantar


D G
me hace pensar en tí,
D G
y soy felíz así
D F#m G A
oh soy felíz asi, asiiiiii
D
oh que felicidad.


Solo:

Acordes(con capo) D G D G D F#m G A x2

TAB (SIN CAPO)

D G D G D F#m G A
e-4--4-5-7--|-4--4-5-7--|-4--4-5-7-7--8-8-9-11-9---|
B---5-----5-|---5-----5-|---5-------------------12-|
G-----------|-----------|--------------------------|


D G D G D F#m G A
e-4--4-5-7--|-4--4-5-7--|-4--4-5-7-7--8-8-9-12-11-12-|
B---5-----5-|---5-----5-|---5------------------------|
G-----------|-----------|----------------------------|


G F#m Em D
Que me hace soñar como nunca imaginé
G F#m Em
y tus labios yo siento besar,
G F#m Em
yo me siento feliz al cantar


D G
me hace pensar en tí,
D G
y soy felíz así
D F#m G A
oh soy felíz asi, asiiiiii
D
oh que felicidad.

D E G D
D E Em D


D E G D
e--4-4-|-2-2-|-5-5-|-4-4-|
B------|-----|-----|-----|
G------|-----|-----|-----|

D E Em D
e--4-4-|-2-2-|-2-2-|-----|
B------|-----|-----|--5--|
G------|-----|-----|-----|

Fin.



Variacion del solo

D G D G D F#m G A
e-------------|--------------|----------------------9-11-9----|
B-9--9-10-12--|-9--9-10-12---|-9--9-10-12-12--13-13--------12-|
G---9-------9-|---9--------9-|---9----------------------------|

D G D G D F#m G A
e-------------|--------------|----------------------9-12-11-12-|
B-9--9-10-12--|-9--9-10-12---|-9--9-10-12-12--13-13------------|
G---9-------9-|---9--------9-|---9-----------------------------|


Saludos