Tiempo Feliz

Los Vidaleros

Genero:

Tablatura

    E                    B7
Sonriente......, Pasito a paso,
A B7 E
De mandilito blanco te vi llegar
C#m G#m
La plaza, la fuente y las rosas en flor
A B7 E ====] BIS
fueron los testigos de nuestro amor.


"los acordes son los mismos"

Luis de fuentes, plazuela Sucre,
nuestro caminito hacia tu porton,
un beso muy dulce de ingenua pasión
tu vieja en la puerta vichándonos.
( un beso muy dulce de ingenua pasión
tu vieja en la puerta vichándonos )


// estribillo
C#m G#m
Tiempo feliz.... Tiempo de amor,
A B7 E
Tiempo de chango y de soñador,
C#m G#m
Pasan los años y al recordar
A B7 E
se me quiebra el pecho y me pongo a llorar.
( Al pasar los años y al recordar
se me quiebra el pecho y me pongo a llorar )

solo:
Nota: los parentesis ( )son arrastres

1:---12-11-12-11-12-9-------------9-12-11-9-7
2:---------------------(10-11)-10------------
3:-------------------------------------------

1:---9-8-9-8-9-------------------9-7-5--(5-7)-
2:--------------(10-11)-8---8-11--------------
3:--------------------------------------------

rapido
1:---(12-12-12)-12-11-12-11-9-------------9-12-11-9-7-
2:-----------------------------(10-11)-10-------------
3:----------------------------------------------------

rapido
1:---(5-5-5)--9-7-6-7--7-10-9-7-9--(9-10)--12-12-11-12--
2:------------------------------------------------------
3:------------------------------------------------------


Sonriente......, Pasito a paso,
de tu mano un niño dice mamá,
ya eres señora y tienes tu hogar,
Ingrato destino, profundo pesar.
( ya eres señora y tienes tu hogar,
Ingrato destino, profundo pesar )

Luis de fuentes, plazuela Sucre,
otras parejitas veo pasar,
La plaza, la fuente y las rosas en flor,
Perdieron de antaño su brillo y color.
( La plaza, la fuente y las rosas en flor,
Perdieron de antaño su brillo y color )

Tiempo feliz.... Tiempo de amor,
Tiempo de chango y de soñador,
Pasan los años y al recordar
se me quiebra el pecho y me pongo a llorar....

Al pasar los años y al recordar
se me quiebra el pecho y me pongo a llorar ....
........y me pongo a llorar ....