La Medicina

Los Victorios

Genero:

Tablatura

Una buena rolita de ska a ver que les parece



INTRO:

E G#m
e------------------------------------------------
B------------------------------------4---4-5-----
G-------------9---9-9------------------4---------
D---------------9--------------------------------
A------------------------------------------------
B------------------------------------------------
Cuantas veces nos rendimos,

A B
e-------------------------------------------------------
B-------5-----------------------------------------------
G-6---6-----------------------------------8---8-9-8-----
D---7---------------------------------------9-------9---
A----------------------------------------------------9-7
B-------------------------------------------------------
en las trampas que hay en medio del camino,



E G#m
e------------------------------------------------
B------------------------------------4---4-5-----
G-------------9---9-9------------------4---------
D---------------9--------------------------------
A------------------------------------------------
B------------------------------------------------
tropezamos con el miedo


A G#7
e------------------------------------------4-----
B-------5-----------------------------4----------
G-6---6---------------------------------5--------
D---7------------------------------6-------------
A------------------------------------------------
E------------------------------------------------
renunciamos a seguir en el intento,


A E
me eh cansado de perder, me noqueo la soledad,
F#m A B
voy contra la gravedad.


puente: E G#m A B X 2


E G#m
Cuantas veces nos rendimos,
A B
en las trampas que hay en medio del camino,
E G#m
tropezamos con el miedo,
A G#7
renunciamos a seguir en el intento,
A B
me eh cansado de perder,
C#m
me noqueo la soledad,
F#m B
voy contra la gravedad

CORO:

E G#m
Estoy seguro que la vida me tiene una sorpresa,
A B
alguna magia que me encienda la luz de la cabeza.


E G#m
Estoy seguro que el destino me tiene listo algún amor
A B E
La medicina que alivia el corazón.


PUENTE: E G#m A B

E G#m
Y en la cancha corre el tiempo
A B
y la vida se reduce a los momentos,
E G#m
yo prefiero las canciones
A G#7
que provocan terremotos de ilusiones,
A B
me eh cansado de perder,
C#m
me noqueo la soledad,
F#m B
voy contra la gravedad

CORO:

E G#m
Estoy seguro que la vida me tiene una sorpresa,
A B
alguna magia que me encienda la luz de la cabeza.


E G#m
Estoy seguro que el destino me tiene listo algún amor
A B E E G#m A B
La medicina que alivia el corazón.

A B
Me eh cansado de perder ,

A B E
me eh cansado de vivir ......en soledad.

E G#m A B E
e-------------------------------------------------------7--
B-----------------4---4-5------------5------------------9--
G----9---9-9--------4---------6---6-------8---8-9-9-----9--
D------9------------------------7-----------9-------9---9--
A-------------------------------------------------------7--
B-------------------------------------------------------X--