El Peor Momento

Los Victorios

Genero:

Tablatura

Bueno es primera colaboración espero les guste,
está dedicada para Dann mi corazón.

Intro:(parte 1)

E--3-3-5-3-------3--3-3-5-3-------3--------------------
A----------5-5-2-------------5-5-2---2-2-5-2-------5---
D--------------------------------------------4-4-2-----
G------------------------------------------------------
B------------------------------------------------------
E------------------------------------------------------

E---------------------------------
A-2-2-5-2-------5--3-3-3-3-3-3-3-3
D---------4-4-2----5-5-5-5-5-5-5-5
G------------------5-5-5-5-5-5-5-5
B---------------------------------
E---------------------------------

Intro:(parte 2)

G Bm Em Am D

G Bm
Nos conocimos en el peor momento
Em Am D
el te humillaba yo me moría de la soledad
G Bm
pero el destino quiso girar el cuento
Em Am D
fuimos imanes nos enredamos de casualidad

Bm Em
Con el tiempo nos fuimos rompiendo
Bm Em
nuestra historia se va disolviendo
C Am
no voy a perderte
D
no me pienso rendir

G C
Tengo una canción para curarte los besos
G C
un refugio para darle vida a los sueños
Bm Em
tengo un cielo clavado en el pecho
Am D
y una luna que late por ti

Si tu no estas no tengo nada


G Bm Em Am D x2


Bm Em
Con el tiempo nos fuimos rompiendo
Bm Em
nuestra historia se va disolviendo
C Am
no voy a perderte
D
no me pienso rendir


G C
Tengo una canción para curarte los besos
G C
un refugio para darle vida a los sueños
Bm Em
tengo un cielo clavado en el pecho
Am D
y una luna que late por ti
G Bm Em
Si tu no estas no tengo nada
Am D
Si tu no estas no tengo nada, nada, nada...

G Bm Em Am D

D
Si tu no estas no tengo nada.



Cualquier aclaración o corrección
albertoriocampos@gmail.com