Mujer Hermosa

Los Tekis

Genero:

Tablatura

Intro: La introducción del tema se basa en una serie de arpegios en lam.

E:-----------------------------------------------------------------------
B:----0-0---0------0-0---0-----0-0---0----0-0---0-----0-0---0----0-0---0-
G:---2-----2------2-----2-----2-----2----2-----2-----2-----2----2-----2--
D:--2-----2------2-----2-----2-----2----2-----2-----2-----2----2-----2---
A:-0------------0--------------------------------------------------------
E:--------------------------3----------3----------1----------1-----------


E:------------------------------------------------------------------------
B:----0-0--0-----0-0---0-------1-1---1------1-1---1-----1-1---1----1-1---1
G:---1----1-----1-----1------2-----2------2-----2-----2-----2----2-----2--
D:--2----2-----2-----2------2-----2------2-----2-----2-----2----2-----2---
A:-------------------------0------------0---------------------------------
E:0----------0--------------------------------------3----------3----------

E:----------------------------------------------
B:-----1-1---1----1-1--1----0-0-----0-----------
G:----2-----2----2----2----1------1-------------
D:---2----2-----2----2----2-----2---------------
A:----------------------------------------------
E:-1-----------1---------0--------------0-------


Am Dm
Camino al cielo campo abierto voy pensando
G C
que todavía mucho más hay por andar
F E Am
en cada paso un buen recuerdo que florece
Dm F
todo, todo esta tan cerca
E Am
que no me puedo olvidar

Mujer hermosa que acompañas mis heridas
mujer hermosa cada vez te quiero más
me diste todo me quitaste y perdonaste
hay si tan solo supieras lo que siento de verdad

Deje la luna esperando en una esquina
fueron los días mas soñados lo sabes
fue tu sonrisa en una noche tan oscura
en un lugar que no quisiera nunca olvidar

Am Dm
Ay amor amor amor
G C
amor de toda la vida
Dm
ay amor amor amor
E7 Am
es el que siento de verdad
Am Dm
ay amor amor amor
G C
amor de toda la vida
Dm
ay amor amor amor
Am
es el que siento de verdad

Dm Am
Yo quiero que la luna brille un poco más
E E7 Am
yo quiero ver tus ojos y en tu boca respirar
Dm Am
Yo quiero que la luna brille un poco más
E Am
yo quiero ver tus ojos y en tu boca respirar


Al final vuelve a hacer la intro con arpegios (es la que anoté primero)
Espero que les sirva y les haya gustado.
Cualquier error les dejo mi correo: ivan_silva97@hotmail.com