Madre

Los Rebujitos

Genero: Pop

Tablatura (Ver letra)

1ª guitarra española: cuerdas de nylon
2ª guitarra acústica: cuerdas de metal
intro

Bm A
|-----------2-----------|-----------0--------------|
|------3---------3------|------2---------2---------| gui1
|-----4-4-----4---4-----|-----2--2----2---2--------|
|----4----4----4---4----|----2----2----2---2-------|
|---2-------------------|---0----------------------|
|-----------------------|--------------------------|
|
|
|-----------------5-----|-------------------5------|
|---2h3--3--2--3--------|---3-3p2--2--2--3---------|
|-----------------------|--------------------------| gui 2
|-----------------------|--------------------------|
|-----------------------|--------------------------|
|-----------------------|--------------------------|

G F#
|-----------3---------|------------------------------|
|-------3-------3-----|--------2--3--5--3--2---------|
|------4-4---4---4----|--2--4-----------------2-3----| gui1
|-----5---5---5---5---|------------------------------|
|---------------------|------------------------------|
|---3-----------------|------------------------------|
|
|
|-----------------5---|------------------------------|
|---2h3--3--2--3------|--------2--3--5--3--2---------|
|---------------------|--2--4-----------------2-3----| gui2
|---------------------|------------------------------|
|---------------------|------------------------------|
Verso
Cuando era pequeñito me decia ke me fuera pa mi cuarto…
Bm A
|-----------2-----------|-----------0--------------|
|------3----------------|------2-------------------| gui1
|-----4-4---------------|-----2--2-----------------|
|----4----4-------------|----2----2----------------|
|---2-------------------|---0----------------------|
|-----------------------|--------------------------|
|
|
|-----------------5-----|-------------------5------|
|---2h3--3--2--3--------|---3-3p2--2--2--3---------|
|-----------------------|--------------------------| gui 2
|-----------------------|--------------------------|
|-----------------------|--------------------------|
|-----------------------|--------------------------|

y mi madre llorando me reñia para que te hiciera caso
G F#
|-----------3---------|------------------------------|
|-------3-------------|--------2--3--5--3--2---------|
|------4-4------------|--2--4-----------------2-3----| gui1
|-----5---5-----------|------------------------------|
|---------------------|------------------------------|
|---3-----------------|------------------------------|
|
|
|-----------------5---|------------------------------|
|---2h3--3--2--3------|--------2--3--5--3--2---------|
|---------------------|--2--4-----------------2-3----| gui2
|---------------------|------------------------------|
|---------------------|------------------------------|
|---------------------|------------------------------|


a la virgen del calvario le rezaba porque esta guerra se acabara

Bm A
|-----------2-----------|-----------0--------------|
|------3---------3------|------2---------2---------| gui1
|-----4-4-----4---4-----|-----2--2----2---2--------|
|----4----4----4---4----|----2----2----2---2-------|
|---2-------------------|---0----------------------|
|-----------------------|--------------------------|
|
|
|-----------------5-----|-------------------5------|
|---2h3--3--2--3--------|---3-3p2--2--2--3---------|
|-----------------------|--------------------------| gui 2
|-----------------------|--------------------------|
|-----------------------|--------------------------|
|-----------------------|--------------------------|


y por más que cerraba los ojos más le gritabas

G F#
|-----------3---------|------------------------------|
|-------3-------3-----|--------2--3--5--3--2---------|
|------4-4---4---4----|--2--4-----------------2-3----| gui1
|-----5---5---5---5---|------------------------------|
|---------------------|------------------------------|
|---3-----------------|------------------------------|
|
|
|-----------------5---|------------------------------|
|---2h3--3--2--3------|--------2--3--5--3--2---------|
|---------------------|--2--4-----------------2-3----| gui2
|---------------------|------------------------------|
|---------------------|------------------------------|
|---------------------|------------------------------|





Pre coro

Ahora ya he crecido ya no quiero estar contigo
Bm
|-----------2---------|
|------3---------3----|
|-----4-4-----4---4---|gui 1
|----4----4----4---4--|
|---2-----------------|
|---------------------|
|
|
|-----------2---------|
|------3---------3----|
|-----4-4-----4---4---|gui 2
|----4----4----4---4--|
|---2-----------------|
|---------------------|




Ahora yo solo te pido
G F#
|------------|--------2-3-5-3-2------------|
|-------3----|--5-3-5-----------5-3-2------| gui1
|------4-4---|------------------------4-3--|
|-----5----3-|-----------------------------|
|------------|-----------------------------|
|---3--------|-----------------------------|
|
|
|------------|-----------------------------|
|-------3----|--------2--3--5--3--2--------|
|------4--4--|--2--4-----------------2-3---| gui2
|-----5----3-|-----------------------------|
|------------|-----------------------------|
|---3--------|-----------------------------|

(las dos guitarras rasguean los acordes)

estribillo

Bm
Que cojas tus cosas y te marches...
A
No permito que le pegue a mi madre
G
Márchate antes de que sea más tarde
G F#
Márchate y no me sea tan cobarde

Bm
Que cojas tus cosas y te marches...
A
No permito que le pegue a mi madre
G
Márchate antes de que sea más tarde
G F#7
Márchate y no me sea tan cobarde

Arreglo de guitarra española

|-------5--5---------5---5h7p5--5-------5---|
|--7-8--------8-7-8---------------8-7-8-----|
|-------------------------------------------| gui 1
|-------------------------------------------|
|-------------------------------------------|
|-------------------------------------------|
|
|
|-----------2----------|-----------0-----------|
|------3---------3-----|------2---------2------| gui2
|-----4-4-----4---4----|-----2--2----2---2-----|
|----4----4----4---4---|----2----2----2---2----|
|---2------------------|---0-------------------|
|----------------------|-----------------------|



|-----------5-7-9-7--7-5---5-7---------------------|
|-8-7-5-7-8--------------7----------2-3-5-3-2------|
|-------------------------------2-4-----------2-3--| gui1
|--------------------------------------------------|
|--------------------------------------------------|
|--------------------------------------------------|
|
|
|-----------3----------------|----------------------|
|-------3-------3------------|------2-3-5-3-2-------|
|------4-4---4---4-----------|--2-4----------2-3----| gui2
|-----5---5---5---5----------|----------------------|
|----------------------------|----------------------|
|---3------------------------|----------------------|




Ahora los recuerdos me atormentan… Tú le destrozaste la vida

Bm A
|-----------2-----------|-----------0--------------|
|------3---------3------|------2---------2---------| gui1
|-----4-4-----4---4-----|-----2--2----2---2--------|
|----4----4----4---4----|----2----2----2---2-------|
|---2-------------------|---0----------------------|
|-----------------------|--------------------------|
|
|
|-----------------5-----|-------------------5------|
|---2h3--3--2--3--------|---3-3p2--2--2--3---------|
|-----------------------|--------------------------| gui 2
|-----------------------|--------------------------|
|-----------------------|--------------------------|
|-----------------------|--------------------------|


Le faltaba maquillaje… Para tantas heridas

G F#
|-----------3---------|------------------------------|
|-------3-------3-----|--------2--3--5--3--2---------|
|------4-4---4---4----|--2--4-----------------2-3----| gui1
|-----5---5---5---5---|------------------------------|
|---------------------|------------------------------|
|---3-----------------|------------------------------|
|
|
|-----------------5---|------------------------------|
|---2h3--3--2--3------|--------2--3--5--3--2---------|
|---------------------|--2--4-----------------2-3----| gui2
|---------------------|------------------------------|
|---------------------|------------------------------|
|---------------------|------------------------------|


A la virgen del calvario le rezaba pero tú nunca parabas

Bm A
|-----------2-----------|-----------0--------------|
|------3---------3------|------2---------2---------| gui1
|-----4-4-----4---4-----|-----2--2----2---2--------|
|----4----4----4---4----|----2----2----2---2-------|
|---2-------------------|---0----------------------|
|-----------------------|--------------------------|
|
|
|-----------------5-----|-------------------5------|
|---2h3--3--2--3--------|---3-3p2--2--2--3---------|
|-----------------------|--------------------------| gui 2
|-----------------------|--------------------------|
|-----------------------|--------------------------|
|-----------------------|--------------------------|

Y el alma se me cae por los suelos… Cuando pienso en su cara


G F#
|-----------3---------|------------------------------|
|-------3-------3-----|--------2--3--5--3--2---------|
|------4-4---4---4----|--2--4-----------------2-3----| gui1
|-----5---5---5---5---|------------------------------|
|---------------------|------------------------------|
|---3-----------------|------------------------------|
|
|
|-----------------5---|------------------------------|
|---2h3--3--2--3------|--------2--3--5--3--2---------|
|---------------------|--2--4-----------------2-3----| gui2
|---------------------|------------------------------|
|---------------------|------------------------------|
|---------------------|------------------------------|


Pre coro

Ahora ya he crecido ya no quiero estar contigo



|-----------2---------|
|------3---------3----|
|-----4-4-----4---4---|gui 1
|----4----4----4---4--|
|---2-----------------|
|---------------------|
|
|
|-----------2---------|
|------3---------3----|
|-----4-4-----4---4---|gui 2
|----4----4----4---4--|
|---2-----------------|
|---------------------|






Ahora yo solo te pido

|------------|--------2-3-5-3-2------------|
|-------3----|--2-3-5-----------5-3-2------| gui1
|------4-4---|------------------------4-3--|
|-----5----3-|-----------------------------|
|------------|-----------------------------|
|---3--------|-----------------------------|
|
|
|------------|-----------------------------|
|-------3----|--------2--3--5--3--2--------|
|------4--4--|--2--4-----------------2-3---| gui2
|-----5----3-|-----------------------------|
|------------|-----------------------------|
|---3--------|-----------------------------|

estribillo

Bm
Que cojas tus cosas y te marches...
A
No permito que le pegue a mi madre
G
Márchate antes de que sea más tarde
G F#
Márchate y no me sea tan cobarde

Bm
Que cojas tus cosas y te marches...
A
No permito que le pegue a mi madre
G
Márchate antes de que sea más tarde
G F#7
MÁRCHATE Y NO ME SEA TAN COBARDE coro x2

FIN

Cualquier dudas sobre el tema a mi e-mail gxn_mixtape@hotmail.com
VIVA LOS REBUJITOS
Y VIVA EL FLAMENCO JODÉ