Eres Tú

Los Rebujitos

Genero: Pop

Tablatura (Ver letra)

Saludos desde la Ciudad de México!!!
=)

itempihannodiviso@hotmail.com pá cualquier duda


|---8~---------7h8h7------------------------8-------10--
|--------10-------------10--10/8------------------------
|-------------------------------------7-----5-------7---
|-------------------------------------------------------
|-------------------------------------------------------
|-------------------------------------------------------
C G


-----12-13-12----10/12------8/10----8---10--12---15---
------------------------------------------------------
------9-10--9----7-/-9------5/7-----5----7---9---12---
------------------------------------------------------
------------------------------------------------------
------------------------------------------------------
F G
C
Como pasan los años
|---------------------
|---------------1----
|---------------2-----
|---------------------
|---3-----------0----
|--------3-----------
Am G#
como si fuera un cuento, de hadas…
F G
Yo te sigo esperando
C
no pierdo la esperanza
|---------------------
|---------------1----
|---------------2-----
|---------------------
|---3-----------0----
|--------3-----------
Am G#
de tenerte entre mis brazos, y eres tú
F G
la luna de mi sueño
Am
siendo tu
Dm
reina de mi vida
G
eres tu, es tu luz
A# A
la que alumbra mis sentíos
Dm G
eras tu, la que me inspira mis palabras
C
cuanto tiempo llevo niña
G
ya llegaste a mi vida
F G
al ver tu carita sentía k me moría
C
cuanto tiempo llevo niña
Am
ya llegaste a mi vida
F
al ver tu carita al ver tu sonrisa
G#
sentí k me moría

C G# C G#
|--------12-12~--------8h10--8--10v11h10----8---8~~---
|-/9 8-----------9-8~---------------------------------
|-----------------------------------------------------
|-----------------------------------------------------
|-----------------------------------------------------
|-----------------------------------------------------
C
sin ti mi alma esta perdida
Am
la distancia me castiga
G# F G
sin ti, yo me derrumbaría
C Am
tu le diste la vida en nuestro amor perduraría
G#
eternamente
F G
tu siempre serás mía
Am
siendo tu
Dm
reina de mi vida
G
eres tu, es tu luz
A# A
la que alumbra mis sentíos
Dm G
eras tu, la que me inspira mis palabras
C
cuanto tiempo llevo niña
G
ya llegaste a mi vida
F G
al ver tu carita sentía k me moría
C
cuanto tiempo llevo niña
Am
ya llegaste a mi vida
F
al ver tu carita al ver tu sonrisa
G#
sentí k me moría

Final:

C G# C G#
|--------12-12~-------------8h10--8--10v11h10-------8---8~~--
|-/9 8--------------9-8~-------------------------------------
|------------------------------------------------------------
|------------------------------------------------------------
|------------------------------------------------------------
|------------------------------------------------------------