Sabes Que Te Quiero

Los Rancheros

Genero: Pop

Tablatura (Ver letra)

   D                          A Bm     D                       A             Bm
e----------------------------------|------------------------------------------------]|
B----------------------------------|----------------------------12/--12-10----------]|
G---9--11---9-11-9-11/-11---7-6----|---9--11---9-11-9-11/--11--7----------11--7-----]|
D--7----------------------------9--|--7---------------------------------------------]|
A----------------------------------|------------------------------------------------]|
E----------------------------------|------------------------------------------------]|



D
Siempre comprendí que la distancia
Bm
no existía entre los dos.
G
Y hoy tengo las valijas apiladas,
A
un beso y un adiós.

D
Siempre voy buscando en los caminos
Bm
un amigo y un amor,
G
un taxi que me espera a media noche en la avenida
A
con las luces encendidas y la música que gira.

G F# Bm
Por más que la distancia nos quiera pagar con dolor,
G A
espérame, ya vengo, que siempre estaré.

D Bm
Porque... sabes que te quiero, lo sabes bien.
G A
Sabes que te quiero: siempre estaré.
D Bm
Sabes que te quiero, lo sabes bien.
G A
Sabes que te quiero: y siempre estaré.

D
Escribo mensajes en los mares,
Bm
en botellas y me voy.
G
Le pido a la luna que te bese,
A
y al sol todo el calor.

D
Siempre me he sentido un vagabundo
Bm
que no quiere despertar.
G
No quiero estar atado a nada en este mundo
A
que me aplaste, que me hunda y que me lleve a lo profundo.


G F# Bm
Por más que la distancia nos quiera pagar con dolor,
G A
espérame, ya vengo, que siempre estaré.

D Bm
Porque... sabes que te quiero, lo sabes bien.
G A
Sabes que te quiero: y siempre estaré.
D Bm
Sabes que te quiero, lo sabes muy bien.
G A
Sabes que te quiero: y siempre estaré.


Solo:
D A Bm D A
e----------------------------------|-10-9-7------|---------------------------------
B----------------------------------|--------7/---|--------10--------10--12s14/-----
G---9--11---9-11-9-11/-11---7-6----|-------------|---9--11-----9--11---------------
D--7----------------------------9--|-------------|--7------------------------------
A----------------------------------|-------------|---------------------------------
E----------------------------------|-------------|---------------------------------
Bm
e---------------|----------------------]|
B--14-12-10-----|----------------------]|
G-----------11--|-7-9-9s11---9-7-------]|
D---------------|----------------9-----]|
A---------------|----------------------]|
E---------------|----------------------]|



G F# Bm
Por más que la distancia nos quiera pagar con dolor,
G A
espérame, ya vengo, que siempre estaré...

D Bm
Sabes que te quiero, lo sabes bien.
G A
Sabes que te quiero: y siempre estaré.
D Bm
Sabes que te quiero, lo sabes muy bien.
G A
Lo sabes, lo sabes, lo sabes, lo sabes, lo sabes... bien.


(D - Bm - G - A) x2



EN LOS SOLOS,, CUANDO PONGO / SIGNIFICA QUE TENÉS QUE ESTIRAR LA CUERDA,
Y CUANDO PONGO LA s (--9s11--, por ejemplo), SIGNIFICA QUE TENES QUE TOCAR UNA VEZ
Y DESLIZAR EL DEDO. Eso es todo... lo último que me queda por decir es que,
MARINA TE AMOOOOOOOOOOOOOOOOOOOOO!!!!!! @->-`----
... y nos estamos viendo...