Pasemos La Noche Juntos

Los Rancheros

Genero: Pop

Tablatura (Ver letra)

INTRO:

||------------------------------------------------------
||------------------------------------------------------
||------------------------------------------------------
||--------------2---------------------------------------
||--2h4-2-0-2-4---4-----2h4-2-0-2-4---------2h4-2-0-2-4-
||----------------------------------4-2-----------------


||--------------------------------------------|
||--------------------------------------------|
||--------------------------------------------|
||4h6-4-4~~-----------------------------------|
||------------2h4-2-0-2-4-2-0-----------------|
||----------------------------4-2-2h5-4-2-4-5-|

A F#m
No se porque ayer tomé demasiado.
A F#m
Ahora estoy tirado en un café;
D
y tal vez hoy te vuelva a llamar,
A
y te diga
D E A
que quiero verte otra vez.


A F#m
No volveremos a pensar en mañana.
A F#m
En el amor mis planes salen mal.
D
Será mejor solo si se da
A
sin reproches, oh no.
D E A
Lo volveremos a intentar...



ESTRIBILLO:

D A
Pasemos esta noche juntos,
E F#m
no importa lo que hagamos después,
D A
q ganas tengo de estar,
E F#m
solos los dos otra vez.
D A
Pasemos esta noche juntos,
E F#m
no importa lo que hagamos después,
D A
que ganas tengo de estar,
E
solos los dos...


PUENTE

A F#m
Tu voz está quebrada en el teléfono.
A F#m
Mi corazón comienza a palpitar,
D
por la ciudad volveré a gritar
A
¡No te vayas!¡Oh no!
D E A
Quedate conmigo!



ESTRIBILLO:

D A
Pasemos esta noche juntos,
E F#m
no importa lo que hagamos después,
D A
q ganas tengo de estar,
E F#m
solos los dos otra vez.
D A
Pasemos esta noche juntos,
E F#m
no importa lo que hagamos después,
D A
que ganas tengo de estar,
E
solos los dos...

A
Solos los dos otra vez.



INTRO

otra vez...

otra vez...

otra vez...



CIERRE


________________________________________________________________
NOTA:faltan los riffs de la viola eléctrica y del cierre que los
voy a poner prontito, por falta de tiempo. Espero les sea de
ayuda, a mí me parece q está bastante bien.
Cualquier duda, consulten al mail.
Saludos.