Para Enamorarte

Los Rancheros

Genero:

Tablatura

 Este tema va dedicado a Alba María Desiree Rodriguez
espero que le guste.

Aquí va la intro.

E---3-2-0-------------------0-------3-2-0-2--
B-3-------3-0-0-1-3-------1---1-----3-3-3-3--
G-------------------0---0-------0------------
D---------------------------------0---------- BIS
A---------------------3----------------------
E---3-------0--------------------------------

Y despues viene esto

E-3-2-0------------------
B-------3-0--------------

G Em C D Dsus4
Vas a venir me dijiste que si
G Em C D Dsus4
La radio repetía porque es un buen día
C D G
Puse velas en la mesa
C D G
Y unas copas de cristal
C D G Bm Em
Le pedí a mis amigos que no vengan
C D G
Esta noche es nuestra y nada más

Intro...

G Em C D Dsus4
Vas a venir y te puedo sentir
G Em C D Dsus4
Estaremos solos en la madrugada
C D G
No quisiera que te enteres
C D G
Del desorden en que vivo
C D G Bm Em
Le pondre sabanas nuevas a la cama
C D G
Para enamorarte

Intro...

G Em C D Dsus4
Para enamorarte...Para enamorarte
G Em C D Dsus4
Para enamorarte...Para enamorarte

Intro...

C D G
Puse música romantica
C D G
Y escondí fotos de amantes
C D G Bm Em
Hice cosas que habitualmente no hago
C D G
Para enamorarte

Intro...

G Em C D Dsus4
Para enamorarte...Para enamorarte
G Em C D Dsus4
Para enamorarte...Para enamorarte

Esta muy fácil pruebenlo.
Un saludo para la gente de Villarrica-Paraguay