Dos Mendigos

Los Rancheros

Genero: Pop

Tablatura (Ver letra)

(Intro)
[-----------------------------------------------------------------------------------
[-0--2--4----------------------------------------------12---------------------------
[----------0--2--4--------------4-----4--2--2h4--0---------9--11--12----------------
[-------------------0--2-----0-----0----------------------------------9--11--12-----
[-----------------------------------------------------------------------------------
[-----------------------------------------------------------------------------------

------------------------------------------------------------------------------------]
------------------------------------------------------------------------------------]
-------------------------------------------------12---------------------------------]
------------------------12--11--12--12--9--9h11-------------------------------------]
-10-10-10-10-10-10-10---------------------------------------------------------------]
------------------------------------------------------------------------------------]

A
Una guitarra, un saxofon
D
mucha musica y alcohol
A
una mujer sin corazon
D
le pone veneno al gobernador


A
el viejo monje Rasputin
D
esta tocando su violin
A
una version de Mary Lyn
D
Se rie por dentro quiere morir

(Puente)
E
todos somos parte
D
de este carnaval
E
todos a la fiesta
D
que la vida va, por eso

(Estrib)
A D
baila en el medio
A D
de la ciudad
A D
canta conmigo
A
hasta que no puedas mas


A
una modelo de playboy
D
un marinero si amor
A
caminando por la calle voy
D
de pronto la vida se pone al sol

(Puente)
(estrib x 2)

(Outro)

[-----------------------------------------------------------------------------------]
[-0--2--4------------------0--2--4------------------0--2--4-------------------------]
[----------0--2--4------------------0--2--4------------------0--2--4--------0-------]
[-------------------0--2---------------------0--2---------------------0--2----------]
[-----------------------------------------------------------------------------------]
[-----------------------------------------------------------------------------------]