Cancion Para Un Amigo

Los Rancheros

Genero: Pop

Tablatura

 Hola,Este es un tema muy purete de los rancheros y
esta muy bien quitada aprovechenla!!!!!
Intro

E--------------------------------------------
B--------------------------------------------
G--------0-----------------------------------
D--0-0/2-------------------------------------
A--------------------------------------------
E--------------------------------------------

G Bm Am D7
Ven a mi necesito hablar una vez mas
G
Nunca quise estar del lado de los que se
Am Bm
ocultan en la noche prefiero las mañanas
E7 Am D7
y el sol quemandome libre como el viento
G
así seré

F C G
No es imposible
F C G
Decir que no
F C G
No es imposible
F G
Ver el sol en la noche
F G
Ver el sol en la noche


Siempre ví un dolor en tí mirandome
Siempre quise ser una canción para un amigo
que fue un loco en la autopista
E7 Am C D7 Am
Un tren sin maquinista
Am D7 G
Un paracaidista sin control

No es imposible.......

E-----------7-5/7-5--------7-5-----------5/7-5-
B-------5-8---------8-5--------8-5---5---------
G--7-7------------------7----------7---4-------
D----------------------------------------------
A----------------------------------------------
E----------------------------------------------

E-7-7-7-7-5---5-7-5---5-5-7-8-10-12-10-8-10-
B-----------8-------8-----------------------
G ------------------------------------------

E-12-12-12-12-10----10----------------------
B----------------13-------------------------
G-------------------------------------------

G Bm
Oí decir que ayer eras un niño
E7
Corriendo en el camino
Am
Con luces en el alma
D7
Y hoy todas las pirañas
G
Se ríen de tí


No es imposible...decir adios

No es imposible

Ver el sol en la noche

Ver el sol en la noche...

Un saludo muy especial para Cynthia Saldivar y a la
gente de Villarrica-Paraguay
Cualquier consulta escribanme...