Senorita A Mi Me Gusta Su Style

Los Rabanes

Genero: Pop

Tablatura

             Señorita a mi me Gusta su Style
(Rabanes)

Recuerden la letra arriba la tablatura de bajo abajo,
traten de hacer los cambios adecuados, Suerte.

Entra guitarrra ritmica en SOL.

intro
g-----
d-----
a---------------------------------------------
e-----1-1-2-33-33-33-33-33-33-33------------(Bis)

2 veces en el disco hasta que entre la voz,
puede que en el traste 3 (Nota Sol)sean mas toques

La vi cruzar la pista con un feeling de campeona mundial
g-------------------------------------
d-------------------------------------
a---------------------------1----------------------
e-33-33-33-33-33-33-33--------33-33-33-33-33-3---1-2

cuando invadio en el baile todo el publico se paralizo,
g----------------------------------------------------------
d----------------------------------------------------------
a---------------------------1--------------------------3-1-
e-33-33-33-33-33-33-33--------------33-33-33-33-33-3------

yo la tenia al frente y cautelosamente quise llegar

g----------------------------------------------------------
d----------------------------------------------------------
a----------------------------1-------------------------1-3-
e-33-33-33-33-33-33-33---------------33-33-33-33-33-3------

disculpe señorita solamente le quiero comentar...

g----------------------------------------------------------
d----------------------------------------------------------
a----------------------------------1----------------------
e-33-33-33-33-33-33-33--------------3-33-33-33-33-3--1-2--

Coro 1

señorita a mi me gusta su style ,señorita a mi me gusta su style

g----------------------------------------------------------
d----------------------------------------------------------
a--2-3-2-55-55-55-5---------------2-3-2-55-55-55-5---------
e-3------------------------------3-------------------------

En el disco esta como suena arriba el coro 1 pero yo lo toco con
esta jugada para llenarlo mejor la repeticion
"RE 5to traste/Cuerda LA" cae con el redoble de la bateria.

señorita a mi me gusta su style ,señorita a mi me gusta su style

g----------------------------------------------------------
d----------------------------------------------------------
a--2-3-2-5-3-2-5--------------2-3-2-55-55-55-5-------------
e-3--------------------------3-----------------------------

Coro 2
Como camina, como baila por usted yo vendo mi alma señorita
a mi me gusta su style
g-----------------------------------------------------------
d-----2-----------------------------------2-----------------
a--2-3--5-3-2-5------------------------2-3--55-55-55-5-------
e-3----------------------------------3----------------------

La repeticion de 7 veces "RE 5to traste/Cuerda LA" cae con el
redoble de la bateria.


Coro 3
Srta I really liked your style Srta a mi me gusta su style

g----------------------------------------------------------
d----------------------------------------------------------
a--2-3-2-5-3-2-5--------------2-3-2-5-2-2-5-------------
e-3--------------------------3-----------------------------

give it up move it up everybody chombo compermiso
habran paso llego el aniquilador

g-----------------------------------------------------------
d------2----------------------------------2-----------------
a--2-3--5-3-2-5------------------------2-3--55-55-55-5-------
e-3----------------------------------3----------------------
push it up give it up everybody chombo atencion toda la audencia
que ahora viene lo mejor
g-----------------------------------------------------------
d------2----------------------------------2-----------------
a--2-3--5-3-2-5------------------------2-3--55-55-55-5-------
e-3----------------------------------3----------------------

Instrumental
g----------------------------------------------------------
d----------------------------------------------------------
a----3-3-3-55-55-55-5------------3-3-3-55-55-55-5----------
e-3-3-------------------------3-3--------------------------(4 veces)

Estrofa Intermedia 1
Llego improvisando nunca fallando con mi lyrics en el mando
notificando que me gusta su style ay ay
dejeme decirle que voce es moito gostoza usted es la epidemia que
acabo mi corazon en rio de janeiro no se fala de otra cosa
que soy un suseso y mi stilo es la sensacion

g----------------------------------------------------------
d---------3-3-55-55-55-5--------3-3-55-55-55-5-------------
a----10-10-----------------10-10---------------------------
e---------------------------------------------------------
(TODAS LAS VECES TOCA CON ESE CIRCULO DE LA Estrofa Intermedia 1)

Estrofa Intermedia 2
y a todas la mujeres se menean con este swing
siempre que yo les canto no se pueden resistir
original soy el demente y soy el mas ruin
y lo que esta en la pista es rabanes para ti

g----------------------------------------------------------
d-------10-10-17-17-17-17-17-17-17-------10-10-12-12-12-12-12-12-12
a--10-10----------------------------10-10-------------------
e---------------------------------------------------------
TODAS LAS VECES TOCA CON ESE CIRCULO DE Estrofa Intermedia 2)


que esta sonando no se que es
que esta acabando y contagiando
notificando que me gusta su style ay ay
esto no es un ritmo que yo traje de jamaica
esto es pura plena from the ghetto in Panama
hecho por los maliantespa todas las señoritas
alerta preparadas le venimos a tocar...

g----------------------------------------------------------
d----------------------------------------------------------
a----3-3-3-55-55-55-5------------3-3-3-55-55-55-5----------
e-3-3-------------------------3-3--------------------------
(Repetir hasta llegar a el silencio)


Lo que sigue repetido arriba ahi buscan las tablaturas
correspóndientes.

Srta a mi me gusta su style
Srta a mi me gusta su style
Como camina, como baila
por usted yo vendo mi alma
Srta a mi me gusta su style
Srta I really liked your style
Srta a mi me gusta su style

give it up move it up
every body chombo

compermiso caballero
llego el aniquilador

push it up give it up
everybody chombo
repetimos nuevamente
ese coro por favor

Srta a mi me gusta su style
Srta a mi me gusta su style
Srta I really liked your style
Srta a mi me gusta su style
original

Aqui se repite como el instrumental.

como lo consegiste,
mami como lo consegiste
como lo consegiste,
el cuerpo de campeona (2X)
de campeona:
y en la pista tu eres number one
de campeona:
los manes arrebataos contigo estan
de campeona:

y en la pista tu eres number one
de campeona:
ay mami a mi me gusta tu style

g----------------------------------------------------------
d----------------------------------------------------------
a--2-3-2-55-55-55-5--------------2-3-2-55-55-55-5----------
e-3--------------------------3-----------------------------

Acaba asi

----------------------------------------------------------
d----------------------------------------------------------
a--2-3-2-55-55-55-5------------2-3-2-55-55-55-5-10---------
e-3--------------------------3-----------------------------

Espero no les haya confundido con tanta transcripcion yo
lo toco con mi grupo y suena muy bien se los aseguro es cuestion
de ordenarse , aparte pueden variar las jugadas suena bien, dedicados
a los Stereofonicos que es una buena banda de Covers que me pidio que
saque este tema y sea esta transcripcion para todos los que quieran
tocar esto y por cuestiones de aprendisasje aun no pueden sacar esta
cancion o no saben como, todo esta sacada a oido disfrutenla.

Cristian Blues..