Bam Bam

Los Rabanes

Genero: Pop

Tablatura

Intro
|---------------------------|
|---------------------------|
|---------------------------|
|-2-2-2-2-2-2-2~------------|
|-2-2-3-3-2-2-3~------------|
|-0-0-0-0-0-0-0~------------|
Verso
En busca de aquel piropo...
|-3-3-4-4-5-5-5-5-----------|
|---------------------------|
|---------------------------|
|---------------------------|
|---------------------------|
|---------------------------|

x2 La Segunda vez en el 5to traste solohace un compas

Coro
G C
Si no Tienes Bam Bam no te van a mirar
D A
ninguno de los pelaos de la bendita central [x2]

Verso 2
|-3-------3------5-----5-------|
|---3-------3------5-----5-----|
|-----5-5-----5------5-----5---|
|------------------------------| (x4)
|------------------------------|
|------------------------------|
Pre Coro E5 2 veces solamente
Coro
Puente Part 1
E,A5
La 2da Parte Suena Bien solamente Tocando A5
Coro
Hay algunas se ponen bravas...
|-3-------3------5-----5-------|
|---3-------3------5-----5-----|
|-----5-5-----5------5-----5---|
|------------------------------|
|------------------------------|
|------------------------------|
El hombre busca..
|-3-3-4-4-5-5-5-5-----------|
|---------------------------|
|---------------------------|
|---------------------------|
|---------------------------|
|---------------------------|
Sin Bam Bam no te quieren mami
Solo A5 suena bien aunque pienso que no tiene guitarra
Luego cuando dice muchachas a bailar hace
A5,G#,G,F#
Luego Va
A5,G varias veces



*** Saludos y que les guste esta cancion***
Rodrigo.