La Máquina Del Tiempo

Los Perros Del Boogie

Tablatura

-Intro:


|e-------
|B-------
|G-------
|D-2/3-2-0-
|A-------
|E-------


D F D

D

hoy me levanté con la luz de la mañana

D

con cientos de cosas bajo la cama

G
y no quiero hacer nada

D
de lo que tengo que hacer

A G D
que es trabajar para intentar aparentar ser uno mas

A G D
y tener el dinero para comprar


|e-------
|B-------
|G-------
|D-------
|A-0-2-4-
|E-------

D

el humo caliente contra mi frente



yo quiero escapar y prender fuego ,


G D
atrancar la maquina del tiempo!


A G
y retroceder , retroceder

A G D
al lugar donde las cosas salían siempre bien

A G D
al lugar donde escondido yo te observé


A G D
al lugar donde te vi por primera vez



-El sólo:




|e--------------------------
|B----------10-11-10--------
|G-12-11-12----------12-11--
|D--------------------------
|A--------------------------
|E-------------------------- 2 VECES Y LA TERCERA:



|e--------------------------------------------------
|B----------10-11-10--------------------------------
|G-12-11-12----------12-11-12-9-7----5-7/9-7--9-11--
|D---------------------------------7----------------
|A--------------------------------------------------
|E--------------------------------------------------





|-------------------------------------------------------------
|-------------10-----------------------------------10-(b12-10-
|-11-9-11-12-----12-11-12------7-9-7----9-11-12---------------
|--------------------------7-9--------------------------------
|-------------------------------------------------------------
|-------------------------------------------------------------


------------------------------10-12-10----------------------------
-10-11-12-(b12-(b12-12-10--12----------12--12-10-----10--------10-
--------------------------------------------------12----11--12----
------------------------------------------------------------------
------------------------------------------------------------------
------------------------------------------------------------------



-------------------------------------------
------------10-----------------------------
-11-9-11-12----12-11-12-------7-9-9-7-9-9--
--------------------------7-9--------------
-------------------------------------------
-------------------------------------------




--------------------------------------
--------------------------------------
------------7-9-11-12-10-b12-10-------
-----7-9-ç9---------------------------
7-10----------------------------------
--------------------------------------



-Despés se repite la primera parte.


-Leyenda:

-(1/2)bX: medio bending en la nota X.

-çX: vibrato en la nota X.