Los Plebes Atrevidos

Los Parientes De Sinaloa

Tablatura

los parientes de sinaloa - Los plebes atrevidos

e|-7-7-5-7--5-3-5-5--3-2--2------2-------2--2---------------------|
B|-8-8-7-8--7-5-7-7--5-3--3-0-0-3-3-0-0-3-3-3-1-0-----------------|
G|------------------------------------------------2-0-------------|
D|----------------------------------------------------------------|
A|----------------------------------------------------------------|
E|----------------------------------------------------------------|

e|----------------------------------------------------------------|
B|--------------------------3---2---1-----------------------------|
G|-0-2-0-2-3-4--0-2-0-2-3-4---3---2---0---------------------------|
D|----------------------------------------------------------------|
A|----------------------------------------------------------------|
E|----------------------------------------------------------------|

G D7 G
voy a cantar un corrido
A|-----------2--4--5---------|
E|--------5--------D7--------|
de los plebes atrevidos
pasaban haciendo bromas
D|----------2--4--5----------|
A|-------5--------G----------|
por toditos los ejidos
D7
tomando cogñac del bueno
G
con toditos sus amigos

e|-------------------------------------------|
B|--------------------------3---2---1--------|
G|-0-2-0-2-3-4--0-2-0-2-3-4---3---2---0------|
D|-------------------------------------------|
A|-------------------------------------------|
E|-------------------------------------------|