La Imagen De Malverde

Los Parientes De Sinaloa

Tablatura

LA ROLA ESTA EL A = LA      LA IMAGEN DEL MALVERDE

e)-0--0--2--0--2--0--2/5--5--5--5--5--5--5--5-|
B)-2--2--3--2--3--2--3/7--7--7--7--7--7--7--7-|
G)--------------------------------------------|
D)--------------------------------------------|
A)--------------------------------------------|
E)--------------------------------------------|


e)--5--5--5--4--4--4--4---5---4--4--4--4---2--0--0--0---
B)--7--7--7--5--5--5--5---7---5--5--5--5---3--2--2--0---
G)----------------------------------------------------3-
D)------------------------------------------------------
A)------------------------------------------------------
E) -----------------------------------------------------



e)--2-2-0-0-2-4-5-4-2-0-2-0-------------------
B)--------------------------3-2-0-------------
G)--------------------------------2-1---------
D)------------------------------------4-2-4-2-
A)--------------------------------------------
E)--------------------------------------------



e)-------------------------------------------------
b)-------------------------------------------------
G)-------------------------------------------------
D)-0-----------------------------------------------
A)------4----2----0--------------------------------
E)-------------------------0--0--2--2--4--4---5----



A
Un joven muy bien vestido
E
De vaquero y con tejana

Con varios anillos de oro
A
Y en su muñeca una esclava
D
Y una imagen de malverdeeeeeeeee
E A
En el cuello trae colgada

A
En su troca color verde
E
Con clavo bien protegido

De cristal y cocaína
A
Le caben treintaises kilos
D
Por Juárez viene a cruzaaaaaaaar
E A
Muy seguro de si mismo



A
Al llegar a la garita
E
Le da un besito a la imagen

Le dice a Jesús malverde
A
Aquí es donde has de ayudarme
D
De antemano muchas graciaaaaaaaas
E A
Se que no has de abandonarme




PREPARACION PARA TERCERA..
D
Le pidieron sus papeles
E A
Se los mostró muy tranquilo
E
Y le dijo el inmigrante
A
Para donde vas mi amigo
D
Me dirijo a san Antonio
E A
Por que aya es donde yo vivo


e)-0--0--2--0--2--0--2/5--5--5--5--5--5--5--5-|
B)-2--2--3--2--3--2--3/7--7--7--7--7--7--7----|
G)--------------------------------------------|
D)--------------------------------------------|
A)--------------------------------------------|
E)--------------------------------------------|


e)--5--5--5--4--4--4--4---5---4--4--4--4---2--0--0--0---
B)--7--7--7--5--5--5--5---7---5--5--5--5---3--2--2--0---
G)----------------------------------------------------3-
D)------------------------------------------------------
A)------------------------------------------------------
E) -----------------------------------------------------


e)--2-2-0-0-2-4-5-4-2-0-2-0------------------
B)--------------------------3-2-0------------
G)--------------------------------2-1---------
D)------------------------------------4-2-4-2-
A)--------------------------------------------
E)--------------------------------------------



e)-----------------------
B)-----------------------
G)-----------------------
D)-0---------------------
A)---4-2-0---------------
E)---------0-0-2-2-4-4-5-


A
Pase que dios lo bendiga
E
Y que tenga muy buen viaje

Y con una sonrisita
A
Paso el narcotraficante
D
Y también discretamente
E A
Volvió a besar a la imagen



A
Mientras aya en Culiacán
E
Una madre lleva rosas

A la imagen de malverde
A
Y su fe es muy poderosa
D
Y le pide por su hijo
E A
Que le salgan bien las cosas



Preparación para tercera

D
Que malverde es milagroso
E A
Otra vez se ha comprobado
E
Pues la carga en san Antonio
A
Ya se encuentra en el mercado
D
Y el joven en Culiacán
E A
Otro viaje ha preparado

esta baa pa toda la plebada
i malandrinada
d culiacan sinaloa
compaz d paarte d su
compa
mizhael guzman beltran:D:D
fierro x la 400