El Asesino

Los Parientes De Sinaloa

Tablatura

El Asesino

es la version q tocan con tuba, popurri con el ayudante

en La mayor

habia un error aqi en el primer sonido, aqi esta bien ya

e|-----------------------------0--0-0--2-2--0--5-4-2---|
B|------------3-3-2-5-5-3-2--2-2--2-2--3-3--2--7-5-3-3-|
G|----2--2-2--4-4-2-6-6-4-2--2-----------------------4-|
D|-2---------------------------------------------------|
A|-----------------------------------------------------|
E|-----------------------------------------------------|


e|---4-4-4-5-5-4-5-5-7-9-------------------|
B|-3-5-5-5-7-7-5-7-7-9-10----2/5-5-3-3-0-2-|
G|-4-------------------------2/6-6-4-4-0-2-|
D|-------------------------2---------------|
A|-----------------------------------------|
E|-----------------------------------------|


e|-----------4-5--------------------------------5--7--|
B|-7-7-5-5-7------7-7-5-5-----------------------5--5--|
G|------------------------6-4-------------------6--6--|
D|----------------------------7-----------------7--7--|
A|----------------------------------------------7--7--|
E|-------------------------------0-0-2-2-4-4-5--5--5--|

la cancion es en A, E7 y D