Cruzando Cerros Y Arroyos

Los Parientes De Sinaloa

Tablatura

e |-5-5-5-4--------------5-5-5-4---------------------|
B |-7-7-7-5-7-7-5-7-7/---7-7-7-5-7-7-5-7-7/-----------------------|
G |---------7-7-6-7-7/-----------7-7-6-7-7/-------------------------------|
D |-----------------------------------------------------------|
A |-----------------------------------------------------------|
E |-----------------------------------------------------------|


e |-5-5-4-5-4-4-----5-5-5---4-4--4/7--7-7--7/5-5-5/4-4------------------|
B |-7-7-5-7-5-5-7-5---------5-5--5/9--9-9--9/7-7-7/5-5----------------|
G |-------------7-6--6-6------------------------------------------|
D |-----------------------------------------------------------|
A |-----------------------------------------------------------|
E |-----------------------------------------------------------|


e |-0-0--2--0-0--4--2-2--0----------------------------------------|
B |-2-2--3--2-2--5--3-3--2--2-0-2-3-2-0---2-0-2-3-5-3-2-3-2-0-----|
G |-------------------------------------2---------------------2---|
D |---------------------------------------------------------------|
A |---------------------------------------------------------------|
E |---------------------------------------------------------------|


e |0-0-0-0-2-0---------|
B |------------3-2-0---|
G |------------------2-|
D |--------------------|
A |--------------------|
E |--------------------|



e |----------------------------------------|
B |----------------------------------------|
G |-2-1---------------------------------------------------------|
D |-----4-2-0----------------------------------------------------|
A |-----------4-2-0----------------------------------------------|
E |-----------------------------------------------------------|

A
Cruzando cerros y arroyos

he venido para verte
E7
palabra de honor que si
E7
e |-7-7-7-5-5--4-5-7--9--10--11-12---------12-12-12-9-7-5-4---|
B |-9-9-9-7-7-5-7-9-10-11--12---14-14-12----------------------|
G |--------------------------------------13-------------------|
D |-----------------------------------------------------------|
A |-----------------------------------------------------------|
E |-----------------------------------------------------------|

traigo mi ropa mojada
A
por que hoy estuvo lloviendo
E7 A
que mas puedo hacer por ti

e |------------5-4---------------------------|
B |----------------7-5-----------------------|
G |--------------------7-6-4-------------------------------|
D |--------------------------7--6-4----------------------|
A |---------------------------------7-5--4------------------|
E |-00-22-44-5-----------------------------7-5------------------------|

A
si las estrellas del cielo
A
pudieran hablar dirian
E7
lo mucho que te amo yo

*=TRINADO
E7
* * * * * * *
e |-------4--5--7--5--7--5--4---------------------------|
B |---2-4-5--7--9--7--9--7--5-----------------------------|
G |-4----------------------------------------------------|
D |---------------------------------------------------|
A |------------------------------------------------------|
E |-----------------------------------------------------------|


si tu me dieras un beso
A
serias bien correspondida
E7 A
por mis caricias de amor
*
--AQI NO LE HAYO BIEN PERO PARA CAER AL A7 SUENA e|-5555-543-|

D
eres flor eres hermosa

eres perfumada rosa
A
que haz nacido para mi

e |-5-7-8-9-9-9--8-9-8--9-9-9--9-8-7-5--5-4-------------5-5-------------|
B |-----------------------------------------7-5---------5-5-------------|
G |---------------------------------------------7-6-4---6-6-------------|
D |---------------------------------------------------7-7-7-------------|
A |-----------------------------------------------------7-7-------------|
E |-----------------------------------------------------5-5-00-22-44-5--|
E7
acerca tu pecho al mio
A
y abrazame que hace frio
E7 A
que asi sere mas feliz


AQUI ES OTRA VEZ EL REQUINTO DEL INICIO AUNQUE LE TOCAN ALGO DIFERENTE
OTRO PEDAZO Y EL FINAL:

|-5-5--4-4--2-2--0-2-0-----------------------------------------------|
|-7-7--5-5--3-3--2-3-2--3-2--E7-E7-A---------------------------------|
|-----------------------4-2-----------------------------------|
|-----------------------------------------------------------|