Aunque No Seas Para Mí

Los Parientes De Sinaloa

Tablatura

lo siento hermano pero tuviste una error grandisimo
la kancion y el rekinto no estan en el tono sol sino en FA
asi q la korregi
saludos

soy nuevo en esto de corregir y enviar pero tengo tiempo en la pagina
ESTA CANCION VA DEDICADA PARA Kenia


G]-------------------3---------------------------
B]-6-5-3-1--6-5-3-1--1-1-3-3-3-1-3-3-6-6-5-------
E]-5-3-1-0--5-3-1-0----0-1-1-1-0-1-1-5-5-3-------

B]-15-13-11-10--15-13-11-10--8-10-11-11-11-10-11-11-15-
E]-13-12-10-08--13-12-10-08--6-08-10-10-10-08-10-10-13-

B]-13--11--10--08--06------------------------------
E]--12--10--08--06--05-----------------------------

esta cancion es con ritmo de balada

F
Se que yo demasiado bebo
Dm
que no tengo un auto nuevo
Bb
se que no me daras tu afecto
Gm C C7
pues alguien perfecto no soy

B]-13--11--10--08--06------------------------------
E]--12--10--08--06--05-----------------------------

F
Se que vivo en casa ajena
Dm
que en verdad no valgo la pena
Bb
que tal vez no sea de tu agrado
Gm C C7
mas enamorado estoy

B]-13--11--10--08--06------------------------------
E]--12--10--08--06--05-----------------------------

F Dm
de tus ojos de tu boca
Bb C
hasta del color y olor de tu pelo

F Dm
tu figura me provoca
Bb C
porque existes le doy gracias al cielo

aunque no seas para mi

------REKINTO--------

F
Se que vivo en casa ajena
Dm
que en verdad no valgo la pena
Bb
que tal vez no sea de tu agrado
Gm C C7
mas enamorado estoy

B]-13--11--10--08--06------------------------------
E]--12--10--08--06--05-----------------------------

F Dm
de tus ojos de tu boca
Bb C
hasta del color y olor de tu pelo

F Dm
tu figura me provoca
Bb C
porque existes le doy gracias al cielo

aunque no seas para mi

......Final......

G]-------------------3---------------------------------
B]-6-5-3-1--6-5-3-1--1-1-3-3-3-1-3-3-6-6-5--5-5-8-8-6--
E]-5-3-1-0--5-3-1-0----0-1-1-1-0-1-1-5-5-3--3-3-6-6-5--