La Yarará

Los Olimareños

Genero: Pop

Tablatura

INTRO: *

Estribillo:
Em[E-G] B7/B
Cargada de veneno
F# Em[E]
va la yarará
G B7/B
cargada de veneno
F# Em[E-G]
va la yarará
D C D C
con la lengua volando
D C B7[B-F#]
ja - ja - ja


Em[E-G] B7/B
Relumbrándole el lomo
F# Em[E]
de relumbrar
G B7/B
relumbrándole el lomo
F# Em[E-G]
de relumbrar
D C D - C
y el rayo del colmillo
D C B7[B-F#]
ja - ja - ja


Am/A-C A
No la pises que se enrosca
Em/G
No la pises que se enrosca
B7/[B-F#] Em/[E-G]
No la vayas a tocar
B7/[B-F#] Em/[E-G]
No la vayas a tocar

INTRO.

Estribillo: Cargada...

Em[E-G] B7/B
El ojo duro y fijo
F# Em[E]
¿a quién mirará?
G B7/B
el ojo duro y fijo

F# Em[E-G]
¿ a quién mirará?
D C D - C
la cabeza chiquita
D C B7[B-F#]
ja - ja - ja


Am/[A-C] A
No la pises que se enrosca
Em/G
no la pises que se enrosca
B7/[B-F#] Em[E-G]
no la vayas a tocar
B7/[B-F#] Em[E-G]
no la vayas a tocar
B7/[B-F#] Em
no la vayas a tocar.


INTRO*:
-----------------------------0-0--------------------------
----0-------0----0-----------0-0----0-------0-----0-------
----------------------------------------------------------
----------------------------------------------------------
--------------2----0--------------------------2-----0-----
-0----0-2------------3-2--0------3---0--2------------3-2-


----0-0---------------------------0-0---------------------
----0-0---0------0----0-----------0-0---0-----0----0-----
---------------------------------------------------------
----------------------------------------------------------
-------------------2----0-----------------------2----0----
-0------3--0--2-----------3-2--0------3---0-2----------3-2