Te Perdoné Una Vez

Los Huracanes Del Norte

Genero: Pop

Tablatura

La saque para bajosexto pero igual se puede tocar en guitarra
los numeros en parentesis son adornos que estan abajo que son de bajosexto


Te perdoné una vez
Intro: F, G7, C, (1)G7, (2)C

(2)C G7 C
Que poca suerte me tocó contigo, yo que
(1) G7
pensé que nunca volvería a tropezar, volví
(3) G7
a caer nuevamente en tus mentiras, te juro que esta
(2)
vez mi corazón no puede más.

C G7 C C7
Si algún día te quise no lo niego, pero esta
(4)
es una historia que no quiero recordar, le diste
F G7 C
a mi pecho una y mil puñaladas, te juro
G7 (5)
que esta vez ya no te puedo perdonar.

F
Te perdoné una vez otra vez
(6) F G7 C
y esta vez ya me cansé tu no tienes remedio
(1) G7
pides que te perdone y lo vuelves a hacer
C
dime tú quien te crees, de tu amor nada quiero.

(4)
Te perdoné una vez otra vez
F G7 C
y esta vez sólo me queda lo bueno desearte,
(1) G7
no quiero que vuelvas si me haces favor
C7
por que mi corazón, se cansó de esperarte.

Intro: C7, (7)F, G7, C, (1)G7,(2)C


C G7 C C7
Si algún día te quise no lo niego, pero esta
(4)
es una historia que no quiero recordar, le diste
F G7 C
a mi pecho una y mil puñaladas, te juro
G7 (5)
que esta vez ya no te puedo perdonar.

F
Te perdoné una vez otra vez
(6) F G7 C
y esta vez ya me cansé tu no tienes remedio
(1) G7
pides que te perdone y lo vuelves a hacer
C
dime tú quien te crees, de tu amor nada quiero.

(4)
Te perdoné una vez otra vez
F G7 C
y esta vez sólo me queda lo bueno desearte,
(1) G7
no quiero que vuelvas si me haces favor
(2) G-G-C
por que mi corazón, se cansó de esperarte.

R1
1 -------------------------
2 -------------------------
3 -5--4-------------------
4 --------7--5------------
5 -------------------------

R2
1 ---------------7--6--4---------
2 --------------------------7--5--
3 --------4--5--------------------
4 -5--7---------------------------
5 ---------------------------------

R3
1 --------------------------
2 --------------------------
3 --------------------------
4 ---------4--5------------
5 -5--7-------------------

R4
1 --------------------------------------
2 --------4--5--2---------------------
3 -5--7-------------5--3--2----------
4 ------------------------------5--3---
5 -------------------------------------

R5
1 ---------------7--6--4-----------------------------------------
2 --------------------------7--5--4--2-----------------------
3 --------4--5---------------------------5--3--2------------
4 -5--7---------------------------------------------5--3-----
5 -----------------------------------------------------------------



R6
1 --------------------------
2 --------4------------------
3 -5--7--------------------
4 ------------3--------------
5 --------------------------


R7
1 -------------------------------------
2 --------4------5--4--2------------
3 -5--7--------------------5--3-----
4 ------------3--------------------3-
5 -----------------------------------