Tengo Miedo

Los Bríos

Genero: Pop

Tablatura

No se me hace justo que publiquen una trascripción como la versión
Anterior, que es solo el requinto, este es facilísimo, no sean
Perezosos, si hacen transcripciones solo por ganar mas puntos
Creo que su calidad de guitarristas deja mucho que desear, tengan
en mente, que sus transcripciones son para sacar de algun apuro a
otro guitarrista, hagan las cosas completas.

Dº X X 3 4 3 4
D/F# 2 0 0 2 3 2


INTRO:
D A7 D
e|--2-0--3--2-2--2-0--3-2-2--0-0--------------------------
B|--3-2--5--3-3--3-2--5-3-3--2-2--3-3--2-2----------------
G|--------------------------------4-4--2-2---4-4--2-2-0---
D|-------------------------------------------5-5--4-4-2-4-
A|------------------------------------------------------5-
E|--------------------------------------------------------


Tengo Miedo que como un pájaro
A7
Te me vueles de la mano
Em A7
Tengo miedo de que todo lo que haga
D D7
Sea en vano

G A7
Tengo miedo de decirte que te quiero
D D7
Y no quererte
G D/F# Em
Tengo miedo de vivir pero también
A7
Temo a la muerte

D
Tengo miedo de marcharme y lamentar
A7
Haber partido
Em A7
Tengo miedo de Jugarme y lamentar
D D7
Haber perdido

G A7
Tengo miedo de buscarte un día
D D7
Y saber que te fuiste
G D/F# Em
Tengo Miedo de saber
A7
Que la eternidad no existe

Intermedio:
D A7
e|--2-0--3\2-2--2-0--3\2-2--0-3\2-2-2---2-0-0--
B|--3-2--5\3-3--3-2--5\3-3--2-5\3-3-3-3-3-2-2--
G|------------------------------------4--------
D|---------------------------------------------
A|---------------------------------------------
E|---------------------------------------------

Em A7 D D7
e|--0-2--5\3-3--3-2--5\3-3-2--5\3-3-3--0-3-2-2-
B|--2-3--7\5-5--5-3--7\5-5-3--7\5-5-5--2-5-3-3-
G|---------------------------------------------
D|---------------------------------------------
A|---------------------------------------------
E|---------------------------------------------

G A7
Tengo miedo de decirte que te quiero
D D7
Y no quererte
G D/F# Em
Tengo miedo de vivir pero también
A7
Temo a la muerte

D
Tengo miedo que la flor de ayer hoy pierda
A7
Su fragancia
Em A7
Tengo miedo del día que deje
D D7
atrás mi infancia

G A7
Tengo miedo por que ayer gritar era mi forma
D D7
De ir hablando
G D/F# Em
Tengo miedo que hoy callar sea mi forma
A7
De ir gritando

D A7 G A7 D
e|--2-0--3\2-2--2-0--3\2-2--0-0----------------------------2-
B|--3-2--5\3-3--3-2--5\3-3--2-2--3-3--2-2-----------------3--
G|-------------------------------4-4--2-2---4-4--2-2-0---2---
D|------------------------------------------5-5--4-4-2--4----
A|-----------------------------------------------------5-----
E|-----------------------------------------------------------