Un Poblano En Nueva York

Los Babys

Genero:

Tablatura

UN POBLANO EN NUEVA YORK (CUMBIA)
tambien conocida como "UNAS NOTAS PARA ANNA"

NOTA: Los deslises que coloque solo son aproximaciones
trate de atinarle lo mas que se pudo al tono original

e|---------------------|--------------------
B|---------------------|--------------------
G|-------------6-6-4---|------------6-6-4---
D|-----6--4-6--------4-|-----4--4-6-------6-
A|-2/5-----------------|-2/4----------------
E|---------------------|--------------------


e|---------------------|---------------------
B|--------4-5-4-2------|---------------------
G|-----9-----------1-4-|-----6--4-6-4---4----
D|-3/7-----------------|-2/4----------6---4--
A|---------------------|---------------------
E|---------------------|---------------------

&&&&&&&&&&&&&&&&&&&&&&&&&&&&&&&&&&&&&&&&&&&&&&&&&

e|------------9-9-7----|------------9-9-7---
B|-----9--7-9-------7--|-----7--7-9-------9-
G|-2/7-----------------|-2/5----------------
D|---------------------|--------------------
A|---------------------|--------------------
E|---------------------|--------------------


e|------12--11-12-11-9---7--|-----9--7-9-7---7---
B|-3/10----------------9----|-3/7----------9---7-
G|--------------------------|--------------------
D|--------------------------|--------------------
A|--------------------------|--------------------
E|--------------------------|--------------------

e|-----12-11-9-12-|-11-9-12-11-9----12-12-12-
B|-9-9------------|--------------10----------
G|----------------|--------------------------
D|----------------|--------------------------
A|----------------|--------------------------
E|----------------|--------------------------

e|-11-9-12-11-9---11-11-11--9-7-11-9-7----9-9-9-
B|--------------9----------------------10-------
G|----------------------------------------------
D|----------------------------------------------
A|----------------------------------------------
E|----------------------------------------------



e|-5-7-9-7-5---11-11-11-|-5-7-9-7-5---11-11-11--
B|-----------9----------|-----------9-----------
G|----------------------|-----------------------
D|----------------------|-----------------------
A|----------------------|-----------------------
E|----------------------|-----------------------

Esta parte de aquí se repite TRES veces

&&&&&&&&&&&&&&&&&&&&&&&&&&&&&&&&&&&&&&&&&&&&&&&&&&&&&&&&

Y este es el final


1|---------------------|--------------------
2|---------------------|--------------------
3|-------------6-6-4---|------------6-6-4---
4|-----6--4-6--------4-|-----4--4-6-------6-
5|-2/5-----------------|-2/4----------------
6|---------------------|--------------------



|---------------------|---------------------
|--------4-5-4-2------|---------------------
|-----9-----------1-4-|-----6--4-6-4---4----
|-3/7-----------------|-2/4----------6---4--
|---------------------|---------------------
|---------------------|---------------------



|-----12-11-9-12-|-9-12-16-16-12-9--
|-9-9------------|------------------
|----------------|------------------
|----------------|------------------
|----------------|------------------
|----------------|------------------

|-15p9--------------------
|-----------9-12-9----9---
|--------11--------11---9-
|-------------------------
|-------------------------
|-------------------------

BONITA LA PISTA BALE LA PENA SACARLA

ESCUCHEN LA CUMBIA, PORQUE ALGUNAS PARTES SON RAPIDAS, PARA
QUE PUEDAN ENCONTRAR BIEN EL RITMO


SUGERENCIAS, COMENTARIOS O DUDAS ESCRIBANME A

patoni_prc@hotmail.com

***
* *
::: (|_(| .. *....* * *
*: (=\' :\') :*....* ** *
•.. (,(\')(\')¤...*..