Regresa Ya

Los Babys

Genero:

Tablatura

ACORDES:> C E F G7 A7 D SI LA C7

****HOLA ESTA ES MI 5TA TRANSCRIPCION****


/NO ES POR PRESUMIR PERO NADIE SABE MANDAR
ROLAS COMPLETAS COMO LO ESTOY HACIENDO/

***ESTA ME LA PASE HORAS TRATANDO DE SACAR LAS NOTAS
ORIGINALES Y LOLOGRE, Y NADIE LA HA MANDADO SOY EL UNICO,
Y OMAR Y GUILLERMO ME HAN PRESUMIDO MUCHO ESTA ROLA****Y
PUES NO LA MANDARON Y NI SIQUIERA TIENEN LOS ADORNOS, NI
ACORDES NI SE SABEN EL REQUINTO PUES POR ESTE MEDIO SE LOS
ENSEÑARE PA Q´VEAN Q SOY CUATE......BUENO MENOS BLAH BLAH
BLAH Y MUCHA MUSICA AHÍ VA...


***ESTA LA ENCONTRE ARMONIZADA EN SOL (G) SE ESCUCHA
BIEN PERO LES VOY A DAR PURA NOTA ORIGINAL Y LA ORIGINAL VA
EN DO (C)***


*****REGRESA YA****

INTRO:

C E F G7
E-3,---8---10-12-14-15-,-12-15-13--15-17-19--------
B-------------------------------------------12-----
G--------------------------------------------------

C E F G7
E-(1/3-1-0)--8--10-12-14-15-,-12-15-13--15-17-19---
B------------------------------------------------12
G--------------------------------------------------

E-(3-15h)------------------------------------------
B--------------------------------------------------
G--------------------------------------------------

***esta parte va tremoleada acompañado con el poema***

C A7 D G7
E-8--10-12-14-15-,-12-15-13--12-10-8---------(3/5-8)
B------------------------------------12------------
G--------------------------------------------------

***NOTA LOS QUE ESTAN EN PARENTESIS () SON ADORNOS
ESCUCHENLOS****


**AHORA VAMOS CON EL POEMA QUE LA VERDAD ESTA BIEN
BONITO** VA ACOMPAÑADO DESDE EL EL SEGUNDO REQUINTO



****POEMA****


C E
************CONTEMPLANDO TU CARITA TRISTE ME DIJISTE
F G7
ADIOS... Y DE MIS LABIOS BROTARON AYES DE DOLOR...QUISE
C A7 D
HABLARTE, HABLARTE PARA DECIRTE NO TE VAYAS POR FAVOR,
G7 C
Y MIS LABIOS NO SE ABRIERON RECUERDO NUESTRO ADIOS******


****ESTO TAMBIEN NADIE LO SABE MANDAR Y ES LA AFINACION DE
VOZ CON ESTE REQUINTO AFINAN SU VOZ VA ASI:

__

_ 1|-----------------------------I
_) 2|-----------------------------I
3|--0--0--0--0----0--0---------I
_ 4|-----------------------------I
_) 5|-----------------------------I
6|-----------------------------
I
__/
A-QUE-LLOS- BE-SOS


***AFINEN BIEN SU VOZ***




****AHORA SI VAMOS CON LA CANCION QUE ESTA BIEN BONITA***


RITMO: BALADA RITMICA


C E
****AQUELLOS BESOS QUE NOS DIMOS LA FORMA EN QUE NOS
F G7
CONOCIMOS NO LO OLVIDARAS...

E--15-12h---

C E
AQUELLAS NOCHES EN MI LECHO YO TE APRETABA AQUÍ EN
F G7
MI PECHO, TE HARAN LLORAR...

E------5h-----------
B-------------------
G--5h---------------

F F C A7
CUANDO TE FIJES EN EL CIELO, BUSCANDO HALLAR ALGUN
D G7 C C7
CONSUELO SI TRISTE ESTAS...

E-5/6----13h---------

F F C A7
REGRESA A MI QUE YO TE QUIERO, REGRESA A MI QUE YO
D G7 C
TE ESPERO, HASTA EL FINAL...

E-11/12---10--8-h----


C E
***CUANDO LAS BRISAS DEL VERANO ESTEN CAYENDO EN
F G7
EN TU LLORANDO NO TARDES MAS...

E-1/3------15h-------

C E
***Y SI EN TUS SUEÑOS TU ME BUSCAS Y AL DESPERTAR
F G7
CON MIL PREGUNTAS ¡REGRESA YA!...

E--------------------
B------6h------------
G-5h-----------------

F F C A7
CUANDO TU EXTRAÑES LA ALEGRIA, Y ME RECUERDES NOCHE
D C C7
Y DIA ¡REGRESA YA!

E--------------------
B------6h------------
G-5h-----------------

F F C A7
¡REGRESA A MI QUE YO TE QUIERO, REGRESA A MI QUE YO
D G7 C
TE ESPERO HASTA EL FINAL!...

E--------------------
B--5------8h---------

C E
****AQUELLOS BESOS QUE NOS DIMOS LA FORMA EN QUE NOS
F G7
CONOCIMOS NO LO OLVIDARAS...

E-1/3------15h-------


C E F
AQUELLAS NOCHES EN MI LECHO YO TE APRETABA AQUÍ EN
G7
MI PECHO, TE HARAN LLORAR...

E--------------------
B------6h------------
G-5h-----------------

F F C A7
CUANDO TE FIJES EN EL CIELO, BUSCANDO HALLAR ALGUN
D G7 C C7
CONSUELO SI TRISTE ESTAS...

E-5/6----13h---------


F F C A7
REGRESA A MI QUE YO TE QUIERO, REGRESA A MI QUE YO
D G7 C
TE ESPERO, HASTA EL FINAL...

E-11/12-----8h-------


******ESTA ES LA PRIMERA PARTE Y LUEGO SIGUE ESTE
REQUINTO TREMOLEADO*****

E-8--10-12-14-15-,-12-15-13--12-10-8---------------
B------------------------------------12------------
G--------------------------------------------------

E---------------------
B-3/5-----------------
G-------5h------------


***SEGUNDA PARTE***


C E
***CUANDO LAS BRISAS DEL VERANO ESTEN CAYENDO EN
F G7
EN TU LLORANDO NO TARDES MAS...

E--------------------
B------6h------------
G-5h-----------------


F F C A7
CUANDO TU EXTRAÑES LA ALEGRIA, Y ME RECUERDES NOCHE
D C C7
Y DIA ¡REGRESA YA!

E--------------------
B------6h------------
G-5h-----------------

F F C A7
¡REGRESA A MI QUE YO TE QUIERO, REGRESA A MI QUE YO
D G7
TE ESPERO...

E--------------------
B----6h--------------


****ACA EN LA PARTE QUE DICE: HASTA EL FINAL VA
ACOMPAÑADO DE ESTE REQUINTO****


C E -F-G7-C
**********HASTA EL FIN-A-A-A-A-A-L*********


TREMOLEADO:

C E F G7
E--8-10-12-14-15--12-15-13--------8----------
B-----------------------------10-------------
G------------------------------------5-------

C
E--------------------------------------------
B--------------------------------------------
G---9----H---10------------------------------
D---10---H---11---------------------***FIN***


******1000000000% CORRECTA SE LOS PROMETO*******



Y YA NO ME PRESUMAN OMAR Y GUILLERMO YO LES GANE
CHEQUENLA AHÍ VERAN QUE ESTA CORRECTA...


****SALUDOS A: ALEJANDRA, ALINKA, ANDREA, SANDRA,
OMAR Y GUILLERMO****




***JAIME COCONI***



///******************************///
///*********JIMMY COCONI*********///
///******************************///