Por Que

Los Babys

Genero:

Tablatura

Esta es una de mis favoritas de los babys, dedicada a la persona
que me inspiro para realizar esta transcripcion, va para ti con
todo mi corazon.

Intro:

1--2--2--2--2--2--0--3/2-----2--2--2--2--2--0--3/2--2--2--2
2--3--3--3--3--3--2--5/3-----2--2--2--2--2--0--3/3--3--3--3
3----------------------------------------------------------
4----------------------------------------------------------


1-------------
2-------------
3---3--5--7--8
4---4--6--8--9


D-F#m-D
Por que?
F#m D F#m-D
me haces tanto sufrir
Cdim A7
si yo nunca te he negado,

si yo nunca te he negado
Mm D G-A-D
mi pobre corazon.

D-F#m-D
Por que?
D7 G
dudas de mi amor
A7 D
si lo unico que quiero,
Cdim Mm
si lo unico que quiero
A7 D-G-A-D
es amarte mas y mas.


Coro:
D
Con el alma hecha pedazos
F#m D
poco a poco voy muriendo
D7 G
no te da pena, mujer.

A7 D
Olvidarte yo quisiera,
Cdim Mm
pero al verte me arrepiento,
A7 D
no te puedo ya olvidar.

REQUINTO

D7 D

F#m D

D7 G


A7 D

Cdim Mm

A7 D



D-F#m-D
Por que?
D7 G
dudas de mi amor
A7 D
si lo unico que quiero,
Cdim Mm
si lo unico que quiero
A7 D-G-A-D
es amarte mas y mas.


Coro:
D
Con el alma hecha pedazos
F#m D
poco a poco voy muriendo
D7 G
no te da pena, mujer.

A7 D
Olvidarte yo quisiera,
Cdim Mm
pero al verte me arrepiento,
A7 D A7 D
no te puedo ya olvidar.









Eso es todo, dudas o comentarios favor de escribirme.