Jinetes En El Cielo

Los Babys

Genero:

Tablatura

Esta canción es facil solo saquenle velocidad y se oira bien chido en la lira


----------------------------------
----------------------------------
----------------------------------
----------------------------------
-----0-0-0--1-3-3-3-0-------------
---0------------------3-3-3-0-3---

----------------------------------
----------------------------------
----------------------------------
----------------------2-2-0-2-----
-----0-0-0-1-3-3-3-0--------------
---0------------------------------

-----------------------------------
-----------------------------------
-------2-2-2-0---------------------
---2-2---------2-2-2-0-------------
-----------------------3-----------
-------------------------0-2-2-2-2-

-----------------------------------
-----------------------------------
-----------------------------------
-----------------------------------
---3-3-0-0---0----------------------
-----------3------------------------