Cuando Los Huracanes Se Acaben

Los Babys

Genero:

Tablatura

ACORDES:> MI DO C LA G F

***HOLA ES MI SEXTA TRANSCRIPCION***


**BUENO**ESTA CANCION COMO ES MUY CHISTOSA PUES LES SIRVE PARA
PASARSELA BIEN UN RATO ...

Y PUES ESTA ROLA TIENE DEDICATORIA
VA DEDICADA A OMAR, GUILLERMO Y GILDARDO Q SIEMPRE Q TOCO
ESTA ROLA SE PONEN A BAILAR CON SUS HUARACHES Y MARACAS Y
POR ESO ES DEDICADA PARA ELLOS... Y ELLOS LA BAUTIZARON ESTA
CANCION COMO:

***HUARACHES***


INTRO DEL TECLADO:

E-------------3----8----------(8-10)--------------------
B-----5-5---5-------------------------------------------
G--5------5---------------------------------------------

(8 10): VARIAS VECES TIPO TREMOLEADO

E-3-0-3-----0-3-----------------------------------------
B--------1---------3-3---5-6-3---0----------------------
G----------------------------------5--------------------

ACA ENTRAN ACORDES CON DO **CLARO CON RITMO HUARACHES**


C C C C C
LA LA LALALA **ESTE ES EL RITMO** Y LUEGO C Y G


***ESTA PARTE ES LA MAS CONOCIDA MUY CHISTOSA...

C G F C
E-----12----12-12---15-15-15-----12----10-10-----------
B--13----13-------------------11----11--------13-13-13-
G------------------------------------------------------

C G F C
E-----12----12-12---15-15-15-----12----10-10-----------
B--13----13-------------------11----11--------13-13-13-
G------------------------------------------------------

C G F C
E----------8-------------------------------------------
B-10-10-10---10--8-8-8-----------6---------------------
G-------------------------7-7--7---7--5-5-5------------

C G F C
E----------8-------------------------------------------
B-10-10-10---10--8-8-8-----------6---------------------
G-------------------------7-7--7---7--5-5-5------------

LAS 6 CUERDAS

C G F C
E----------8-------------------------------------------
B-10-10-10---10--8-8-8---------------------------------
G------------------------------------------------------
D--------------------------0-2-3-0---------------------
A------------------------0---------333-----------------
E------------------------------------------------------

C G F C
E----------8-------------------------------------------
B-10-10-10---10--8-8-8---------------------------------
G------------------------------------------------------
D--------------------------0-2-3-0---------------------
A------------------------0---------333-----------------
E------------------------------------------------------


2DA PARTE

E--0-3-3-----03-03-03-03-(RAPIDO)----------------------
B------------------------------------------------------
G------------------------------------------------------

ACA ENTRA ALGO RAPIDO Y SUPER CHISTOSO

C G
E--8-8-8------8----8---------3-3-3-----3---3-----------
B----------10---10---10--------------5---5---5---------
G------------------------------------------------------
C G
E--8-8-8------8----8---------3-3-3-----3---3-----------
B----------10---10---10--------------5---5---5---------
G------------------------------------------------------

YA MÁS LENTO
G F C
E-3-3-3---0-1-5----0-1-3-----0-1-0---------------------
B-------------------------3--------3-1-----------------
G------------------------------------------------------

F C
E----0-1-5----0-1-3-----0-1-0--------------------------
B--------------------3--------3-1----------------------
G------------------------------------------------------
F C C C C
E----0-1-0-------------0-1-0-----0-0-0-----------------
B-3--------3-1------3------------1-1-1-----------------
G------------------------------------------------------


3RA PARTE SE REPITE TODO

C G F C
E-----12----12-12---15-15-15-----12----10-10-----------
B--13----13-------------------11----11--------13-13-13-
G------------------------------------------------------

C G F C
E-----12----12-12---15-15-15-----12----10-10-----------
B--13----13-------------------11----11--------13-13-13-
G------------------------------------------------------

C G F C
E----------8-------------------------------------------
B-10-10-10---10--8-8-8-----------6---------------------
G-------------------------7-7--7---7--5-5-5------------

C G F C
E----------8-------------------------------------------
B-10-10-10---10--8-8-8-----------6---------------------
G-------------------------7-7--7---7--5-5-5------------

LAS 6 CUERDAS

C G F C
E----------8-------------------------------------------
B-10-10-10---10--8-8-8---------------------------------
G------------------------------------------------------
D--------------------------0-2-3-0---------------------
A------------------------0---------333-----------------
E------------------------------------------------------

C G F C
E----------8-------------------------------------------
B-10-10-10---10--8-8-8---------------------------------
G------------------------------------------------------
D--------------------------0-2-3-0---------------------
A------------------------0---------333-----------------
E------------------------------------------------------

4TA PARTE

E--0-3-3-----03-03-03-03-(RAPIDO)----------------------
B------------------------------------------------------
G------------------------------------------------------

ACA ENTRA MUCHO MAS RAPIDO Y SUPER CHISTOSO
C G
E--8-8-8------8----8---------3-3-3-----3---3------------
B----------10---10---10--------------5---5---5----------
G-------------------------------------------------------
C G
E--8-8-8------8----8---------3-3-3-----3---3------------
B----------10---10---10--------------5---5---5----------
G-------------------------------------------------------

YA MÁS LENTO
G F C
E-3-3-3---0-1-5----0-1-3-----0-1-0----------------------
B-------------------------3--------3-1------------------
G-------------------------------------------------------

F C
E----0-1-5----0-1-3-----0-1-0---------------------------
B--------------------3--------3-1-----------------------
G-------------------------------------------------------
F C C C C
E----0-1-0-------------0-1-0-----0-0-0--h--**FIN**------
B-3--------3-1------3------------1-1-1--h---------------
G-------------------------------------------------------


ASI O MAS CHISTOSA...

NO ES CIERTO DISCULPEN NO SE LA CREEAN LO DE SU DEDICACION ES
SOLO BROMA ES Q LA VERDAD SI ESTA BIEN CHISTOSA ***BUENO PERO SI
VA DEDICADA PARA EL GILDARDO NADA MAS PA Q SE EMOCIONE***


ALINKA, ALEJANDRA, SANDRA, ANDREA, OMAR, GUILLERMO Y GILDARDO
ALIAS EL GABACHO...





***JAIME COCONI***