Apache Espacial

Los Babys

Genero:

Tablatura

AQUÍ LES DEJO UNA PISTA QUE ESTA EXELENTE COMO PARA RELAJARSE
TIENE BUEN SONIDO CON UNOS DETALLES PERO BIEN

THE SHADOWNS

e----------------------------5--3--0--
B--------1--3^------------1-----------
G-----2----------------2--------------
D-------------------------------------
A-------------------------------------
E------------------------------------- x2


e--------------------------
B--------------------------
G------2-----2-------------
D---2-----2-----4--2--0--2-
A--------------------------
E-------------------------- x2


e------------------------
B----3-----3-------------
G-2-----2-----4--2--0--2-
D------------------------
A------------------------
E------------------------


e---------------------------
B---------------------------
G-----2-----2---------------
D--2-----2-----4--2--0--2---
A---------------------------
E---------------------------

e-----------------------------------
B-----------------------------------
G-----------------------------------
D---3333---3333---3333---3333--3----
A-3------3------3------3---------0--
E----------------------------------- x2


e----------------------|-0-----------|
B-------1--0---0--1--3-|----3--1-----|
G----2-----------------|-----------2-|
D-3--------------------|-------------|
A----------------------|-------------|
E----------------------|-------------| x2

e--------------------------------
B-------1--0---0--1--3-----------
G----2------------------0--------
D-3------------------------------
A--------------------------------
E--------------------------------

e-----3-------6---
B-2/5---5-5/8---8-
G-----------------
D-----------------
A-----------------
E-----------------

e----------------------|-0-----------|
B-------1--0---0--1--3-|----3--1-----|
G----2-----------------|-----------2-|
D-3--------------------|-------------|
A----------------------|-------------|
E----------------------|-------------| x2

e-----------------------------------
B-----------------------------------
G-----------------------------------
D---3333---3333---3333---3333--3----
A-3------3------3------3---------0--
E----------------------------------- x2


e----------------------------
B----------------------------
G----------------------------
D---77777---7----------------
A-7-------7---99999--7--5----
E----------------------------

e-----------------------------
B-----------------------------
G---77777---7-----------------
D-7-------7---99999--7--5-----
A-----------------------------
E-----------------------------

e----------------------------
B----------------------------
G----------------------------
D---77777---7----------------
A-7-------7---99999--7--5----
E----------------------------

e-----0---
B----1----
G---2-----
D--2------
A-0-------
E---------

e----------------------|-0-----------|
B-------1--0---0--1--3-|----3--1-----|
G----2-----------------|-----------2-|
D-3--------------------|-------------|
A----------------------|-------------|
E----------------------|-------------| x2


e------------------------------------------
B-------1--0---0--1--3---------------------
G-----2------------------0----0000-1-0-1-0-
D-3----------------------------------------
A------------------------------------------
E------------------------------------------


e-----------------------0-----------
B-------1--0---0--1--3-----3--1-----
G----2----------------------------2-
D-3---------------------------------
A-----------------------------------
E-----------------------------------


e------------------------------------
B------------------------------------
G------------------------------------
D---3333---3333---3333---3333--3-----
A-3------3------3------3----------0--
E------------------------------------


e-------------------------------
B-------------------------------
G-------------------------------
D----------------------333333-2-
A--------000000-333333----------
E-111111------------------------


e----------------------------5--3---
B--------1--3^------------1---------
G-----2----------------2------------
D-----------------------------------
A-----------------------------------
E----------------------------------- x3


e------------------------------------
B--------1--3^------------1-----1----
G-----2----------------2-----2-----2-
D------------------------------------
A------------------------------------
E------------------------------------

Am D
e----------------------5--3--0----------------
B--------1--3^------------------3--1--0-------
G-----2----------------------------------0--2-
D---------------------------------------------
A---------------------------------------------
E---------------------------------------------
ESPERO Y LES AGRADE ESTA PISTA ALGUN COMENTARIO SUGERENCIA
MANDEMENLO A MI CORREO

patoni_@hotmail.com


***
* *
::: (|_(| .. *....* * *
*: (=\' :\') :*....* ** *
... (,(\')(\')¤...*..