Y Qué?

Los Babasónicos

Genero:

Tablatura

Y Que?

Intro:
|--------------------------------------------------|
|--------------------------------------------------|
|--------------------------------------------------|
|--------------------------------------------------|
|--------------------------------------------------|
|--0---3---5-----0---3---5-------------------------|

Verso:

Em Em A

|-----------------------------------------------|
|-----------------------------------------------|
|-----------------------------------------------|
|-----------------------------------------------|
|--7--7---5------------5--7--7---5--------------|
|-------7---5----5--7----------7---5------------|

Oh si, estoy mirando a tu novia y que
no tengo nada que decirte
ella me gusta y yo a ella tambien
C D E
oh si, y que, y que...


Estribillo: Em D


Verso:
|----------------------------------------------|
|------7-------8----------7-------8------------|
|----7---9-9-9----------7---9-9-9--------------|
|--9-------------9----9-------------9----------|
|----------------------------------------------|
|----------------------------------------------|

|----------------------------------------------|
|------7-------8----------------7--------------|
|----7---9-9-9----5-5-5-5-7-7-7----------------|
|--9-------------------------------------------|
|----------------------------------------------|
|----------------------------------------------|

Oh si, estoy mirando a tu novia y que
no tengo nada que decirte
ella me gusta y yo a ella tambien
oh si, y que, y que...

|----------------------------------------------|
|------7-------8----------7-------8------------|
|----7---9-9-9----------7---9-9-9--------------|
|--9-------------9----9-------------9----------|
|----------------------------------------------|
|----------------------------------------------|

|----------------------------------------------|
|------7-------8-------------------------------|
|----7---9-9-9----5-----5-5-5h7-----7-7-7h9----|
|--9----------------5h7---------7h9------------|
|----------------------------------------------|
|----------------------------------------------|


Estribillo: Em D

Puente: Em A x4

Solo:

|-0-0-0-0-12-0-0-0-0-10-0-0-0-0-9-0-0-0-0-7-0-0-5-7-|
|---------------------------------------------------|
|---------------------------------------------------|
|---------------------------------------------------|
|---------------------------------------------------|
|---------------------------------------------------|

Estribillo: Em D

C D E
oh si, y que, y que...