Soy Rock

Los Babasónicos

Genero:

Tablatura

Hola amigos, aqui estan los riff del tema,
no son exactos, pero suenan bastantes parecidos.
Disfrutenla!.

INtro:

1-------------------------------
2-------------------------------
3-------------------------------
4-------------------------------
5---------------0---3---2---0---
6---0---3---0-------------------

Riff 1
1------------------------------------------------------------------------
2------------------------------------------------------------------------
3------------------------------------------------------------------------
4---2-x-2-----------------------------2-x--2-----------------------------
5---0-x-0--3--0--------------3--0-----0-x--0--3--0--------------3--0-----
6----------------3--0--3--0-------------------------3--0--3--0--------3--

Riff 2
1-----------------------
2-----------------------
3-----------------------
4--2-----------------2--
5--0-----------------0--
6-----3--0--3--0--3-----

Verso: Riff 1

Soy muy puta
y no trabajo para vos
mantenida, gracias a la propaganda
C D
no voy a ser tu ramera
Riff1
no limpio lo que ensucias

Estribillo: Riff 2

rock...
soy rock

soy astuta
no investigo para vos
desatame, no quiero colaborar
no voy a ser prisionera
de tu organismo feudal

rock...
soy rock

soy muy puta
y no trabajo para vos
vivo inmersa, en un estilo ya sin vida
yo pertenezco a cualquiera
no al que me pueda comprar

rock...
soy rock

Ountro: X 2

1-------------------------------
2-------------------------------
3-------------------------------
4-------------------------------
5---2-x---2-x-2-----2-x---2-x---
6---0-x---0-x-0-----0-x---0-x---

A5
Rock!

fin


bueno gente, eso es todo, dudas o correciones, enviar a
ivanmarcosanton@hotmail.com