Sheeba Baby

Los Babasónicos

Genero:

Tablatura

PARTE LENTA:
1|-------------|
2|---10-8------|
3|--------8-10-|
4|-8-----------|


INTRO(parte rápida):
1|--5-------------------------------------|
2|-------------1-3-1-3-1---3-1-3-1--------|
3|-3-------1-3-----------3---------3—-1-1-|
4|----0-1-3-------------------------------|

1|--5-------------------------------------|
2|-------------1-3-1-3-1---3-1-3-1----1---|
3|-3-------1-3-----------3---------3—---1-|
4|----0-1-3-------------------------------|

1|--5-------------------------------------|
2|-------------1-3-1-3-1---3-1-3-1--------|
3|-3-------1-3-----------3---------3—-1-1-|
4|----0-1-3-------------------------------|

1|--5-------------------------------------|
2|-------------1-3-1-3-1---3-1-3-1---3-1--|
3|-3-------1-3-----------3---------3—---1-|
4|----0-1-3-------------------------------|

1|--5-------------------------------------|
2|-------------1-3-1-3-1---3-1-3-1---3-1--|
3|-3-------1-3-----------3---------3—---1-|
4|----0-1-3-------------------------------|

PRIMER VERSO(“Su figura tibia...”:

1|--5-------------------------------------|
2|-------------1-3-1-3-1---3-1-3-1--------|
3|-3-------1-3-----------3---------3—-1-1-|
4|----0-1-3-------------------------------|

1|--5-------------------------------------|
2|-------------1-3-1-3-1---3-1-3-1---3-1--|
3|-3-------1-3-----------3---------3—---1-|
4|----0-1-3-------------------------------|

1|--5--------------------------------------|
2|-------------1-3-1-3-1---1---3---1---3---|
3|-3-------1-3-----------3---3---3--—3---1-|
4|----0-1-3--------------------------------|

1|--5--------------------------------------|
2|-------------1-3-1-3-1---3-1--3-1--3-1---|
3|-3-------1-3-----------3-----3----3—--3--|
4|----0-1-3--------------------------------|

ESTRIBILLO:
1|--------------------------|
2|------/10-8---------8-----|
3|---7-8------10-8h10---10\-|
4|-8------------------------|

(“SHEEBA, SHEEBA, SHEEBA BABY...”):
1|-------------------------------------|
2|-------------------------------------|
3|---------6-6-6-6-8-8-8-8-11-11-11-11-|
4|-8—8—8-8-----------------------------|

FINAL:
1|---------------------|---------------------|
2|---------------------|-----------------8---|
3|---5-6-6/11-10-8-6---|---5-6-6/11-10-6-----|
4|-8-----------------6-|-8-----------------6-|

ULTIMA PARTE:
1|-------------|
2|---10-8------|
3|--------8-10-|
4|-8-----------|

TERMINA ASI:
1|--------|
2|---10-8-|
3|--------|
4|-8------|