Satiro

Los Babasónicos

Genero:

Tablatura

Intro:

1-----------------------
2-----------------------
3-----------------------
4----2--1--5--4---------
5----------------5--4--0
6-----------------------

riff1(sobre A)

1-------------------------
2-------------------------
3-------------------------
4------5--5--7------------
5---------------7--6--5---
6---5---------------------

Verso: Todo Sobre A

Cerdos, no se escondan más
salgan a explotar sus barrigas enemigas
muestren donde guardan
sus futuras herederas

A C D
waaaa ahora empiezo
A C D
waaaa voy por tu hija,
A C D
waaaa a toda prisa
A C D
waaaa y las haré mi harén

Estribillo:

1---------------------------------
2---------------------------------
3---------------------------------
4---------------------------------
5---7--x-x---8-7-x-x--7--6--5--
6---5--x-x---6-5-x-x-----------

satiro, satiro, satiro,
satiro, satiro, satiro, satiro

verso: Todo Sobre A

camarada prisionero te someteré
luego la fatal creciente te acuñará

A C D
waaaa ahora empiezo
A C D
waaaa voy por tu hija,
A C D
waaaa a toda prisa
A C D
waaaa y las haré mi harén

Estribillo:

1---------------------------------
2---------------------------------
3---------------------------------
4---------------------------------
5---7--x-x---8-7-x-x--7--6--5--
6---5--x-x---6-5-x-x-----------

satiro, satiro, satiro,
satiro, satiro, satiro, satiro

Intro:

1-----------------------
2-----------------------
3-----------------------
4----2--1--5--4---------
5----------------5--4--0
6-----------------------

verso: Todo Sobre A

feudos, señores del feudo
ti villa está citiada, voy cruzando la fosa
el hambre me deforma y el celo me acosa
A C D
waaaa ahora empiezo
A C D
waaaa voy por tu hija,
A C D
waaaa a toda prisa
A C D
waaaa y las haré mi harén
Estribillo:
1---------------------------------
2---------------------------------
3---------------------------------
4---------------------------------
5---7--x-x---8-7-x-x--7--6--5--
6---5--x-x---6-5-x-x-----------
satiro, satiro, satiro,
satiro, satiro, satiro, satiro

Puente:

1--------------------------------
2--------------------------------
3--------------------------------
4------5--5--7--7----------------
5----------------------7--6--5---
6---5----------------------------

cada uno de tu raza que convenza
es mi victoria.

Puente:

1--------------------------------
2--------------------------------
3--------------------------------
4------5--5--7--7----------------
5----------------------7--6--5---
6---5----------------------------x 4

Estribillo:
1---------------------------------
2---------------------------------
3---------------------------------
4---------------------------------
5---7--x-x---8-7-x-x--7--6--5--
6---5--x-x---6-5-x-x-----------
satiro, satiro, satiro,
satiro, satiro, satiro, satiro

final: Como intro