Puesto

Los Babasónicos

Genero:

Tablatura

INTRO
A# F# A# A
e-----------------------------------------------------------------
b-----------------------------------------------------------------
g-----------------------------------------------------------------
d-----8---8---8---8---5---5---5---5---8---8---8---8---7---7---7--7
a-----------------------------------------------------------------
E---6---6---6---6---3---3---3---3---6---6---6---6---5---5---5---5-

e-------------------------------------------------------
b-------------------------------------------------------
g-------10---------7--5----------------7--5-------------
d----10--------7--------8--7---5--7---------8--7---5--7-
a--8---------7---------------8-------------------8------
E----------5--------------------------------------------
F A *Punteo*

Verso
pm xxxxxxxxxxxxxxxxxxxxxxxxxxxxxxxxxxx
e-------8---------5-------5--------5----
b-------10--------5-------6--------5----
g-------10--------6-------7--------6----
d----10-----------7-----7--------7------
a--8------------7-----5--------7--------
E-------------5---------------5---------
F A Dm A

F A Dm A
Que casualidad fue encontrarte justo acá,
F A Dm A
Yo tan puesto, vos tan apuesta
F A Dm A
Que sofisticado fue invitarte a coquetear,
F A Dm A
Yo tan lento, vos tan regia,

Puente

e----------------------------------------------------
b----------------------------------------------------
g------7-----7----------4/5-4------7-----7----------6
d--------8-----8------5--------------8-----8------7--
a----8--------------5------------8--------------7----
E--6-------6------3------------6-------6------5------
A# G A# A

A# G A# A
Sos hermosa sos hermosa

la segunda estrofa igual q la primera

Estribillo

e------5-------3--------8--------3-------
b------7-------5--------10-------3-------
g------7-------5--------10-------4-------
d----7-------5-------10----------5-------
a--5-------3-------8-----------5---------
E----------------------------3-----------
D C F G

D C F G D C F G
Todo lo que pueda arreglar hoy lo dejare para mañana.

el orden del tema va:

Intro
Verso
Puente
Verso
Puente
Estribillo
Puente
Verso con el punteo del intro de fondo
Puente
Estribillo