Poder ñandu

Los Babasónicos

Genero:

Tablatura

sobre esto:
E-E-F
E-E-F
E-E-G-A-G

E-E-F
E-E-F
E-E-A-G-G

E-E-E-E-F
E-E-E-E-G

E-E-E
E-E-E

Babasonicos
en estado hardcore
Babasonicos
en estado hardcore

G E
A|-3-------2------
E|-------0--------

Tu cara nueva por la mia en la cripta (x4)

Que temazo x dios espero que lo puedan sacar....el
gallagher
G E
Tu cara nueva por la mia en la cripta (x4)

e|--------------------------7~7~--5---------------------------
B|-----------------5b7b5--------------7----5-----7~7~-5----
G|----4--4--4/7-------------------------------7-------------7-
D|--------------------------------------------------------------
A|--------------------------------------------------------------
E|--------------------------------------------------------------

e|--------------------------7-7---5-------------------------
B|-----------------5b7b5--------------7--5----5--5--------
G|----4--4--4/7------------------------------7-------------
D|-----------------------------------------------------------
A|-----------------------------------------------------------
E|-----------------------------------------------------------

E-E-E-E-F

E-E-E-E-E
A|------------1------------
E|-0--1--3-----3--1--0----------

E-E-E G/A/G

Un kilo de sabor letal
persiguen por tu eternidad
tu cara arruinada en un tiro al blanco
de feria de pueblo y circo malo

A# A# A# A# (x2)

E-E-F
E-E-F
E-E-G-A-G

E-E-F
E-E-F
E-E-A-G-G

Babasonicos te demuestran su poder ñandu
Babasonicos te demuestran su poder ñandu

G E
A|-3-------2------
E|-------0--------

Tu cara vieja como blanco de feria (x4)
G E
Tu cara vieja como blanco de feria (x4)

e|--------------------------5--5--5--5/7--7--7-------------
B|-----------------5b7b5--5--5--5--5/7--7--7---------------
G|----4--4--4/7---------------------------------------------
D|-----------------------------------------------------------
A|-----------------------------------------------------------
E|-----------------------------------------------------------

e|---------------------------7--5---------------------------
B|-----------------5b7b5----------7--5--7--5------5------
G|----4--4--4/7---------------------------------7----------
D|-----------------------------------------------------------
A|-----------------------------------------------------------
E|-----------------------------------------------------------

E-E-E-F-E E-E F-F
E-E-E-F-E E-E A#-A#

Porque sabemos tu don comъn
por que me cago en tu estilo batido
por que comes la carroña, roña
porque la cripta te llama
Ven a mi.....