Pavadas

Los Babasónicos

Genero:

Tablatura

Intro

Am Asus4 Am7 (utiliza estos tres acordes)

es algo mas o menos asi uno que otro bajeo puede ser
E|-5------5--------5-----5---5---5------5---------|
A|-----7----7----------7---7---------7----7-------|
D|---7-------7-------7-------------7-------7------|
G|-5---7--5---5----5---7-5-7-5---5---7--5---5-----|
B|------------------------------------------------|
e|------------------------------------------------|

E||--5----------5-5---5-----5------5----------5-5-|
A||------7--7-7-----------7---7--------7--7-7-----|
D||----7----------------7------7-----7------------|
G||--5---7------7-5---5---7-5---5--5---7------7-5-|
B||---------8-5---------------------------8-5-----|
e||-----------------------------------------------|


Am C
si vas a decir macanas
G Am C G
calla
Am C
todo fue mousse y espuma
G D
lemon pie
Am C
dulce de ingrata luna
G D Am
no te tientes a decir pavadas
C G D Am C
flaca, no ves las cosas como son envuelta en llamas
G D
¡Deliras!


Am C
si vas a decir macanas
G D
no digas nada
Am C
si vas a decir macanas
G Am
calla


Am C
no necesito probar
G D
tu amistad
Am C
furia de apache herido
G D Am C
no te tientes a escupir broncas baratas
G D Am C
tu actuacion supera el oscar al rey del drama
G D
¡Deliras!


Am C G D
si vas a decir macanas no digas nada
Am C G Am C G
si vas a decir macanas calla

Am C G D Am C G D

Am C G D
si vas a decir macanas no digas nada
Am C G Am
si vas a decir macanas calla

fin

Asus4
E|-5-|
A|-7-|
D|-7-|
G|-7-|
B|-5-|
e|-5-|

eso es todo como ven esta muy facil aun asi como
esta cancion es de las que mas me gustan vale
A pena enviarla.

saludillos ¡¡¡