Mantel Bucólico

Los Babasónicos

Genero:

Tablatura

Este tema tiene sólo 3 acordes y mantiene siempre el mismo ritmo,
pero son los efectos extra y el ritmo de la voz los que lo hacen
copado. Como en algunas partes suenan los acordes y los punteos al
mismo tiempo, mejor lo tocan acompañado.

--------------------------------------------------------------------O
Intro: |
|
e|--10-9-7-5-2--0-2/0--0-0----------| |
B|-------------------------3--3/7---| |
G|----------------------------------| |
D|----------------------------------| |
A|----------------------------------| |
E|----------------------------------| |
--------------------------------------------------------------------O

D G D G
No hay como amar y ser amado
D G A
es la cosa más feliz que hay
D G D G
frotáme de vapor silbando esta canción
D G A
me deslizo entre la soledad

--------------------------------------------------------------------O
Mientras se tocan los acordes en "frotáme de vapor...: |
|
e|--------------------------------| |
B|--3--3/7-5-3--10-7-3--3/7-5-5---| |
G|--------------------------------| |
D|--------------------------------| |
A|--------------------------------| |
E|--------------------------------| |
--------------------------------------------------------------------O

D G D G
Toma el camino más largo
D G A
por ahí me encontrarás
D G D G
descansando entre los prados
D G A
a la orilla del maizal

--------------------------------------------------------------------O
Estribillo: |
|
D G D G |
No hay como amar y ser amado |
D G A |
es la cosa más feliz que hay |
|
D G D G |
No hay como amar y ser amado |
D G A |
es la cosa más feliz que hay |
--------------------------------------------------------------------O

--------------------------------------------------------------------O
Tocar apagando las notas: |
|
D G D G |
Toma el camino más largo |
D G A |
por ahí me encontrarás |
D G D G |
descansando entre los prados |
D G A |
A A orilla del maizal |
--------------------------------------------------------------------O

--------------------------------------------------------------------O
Mientras se tocan los acordes en "toma el camino más largo...: |
|
e|----0-----0-9/10-10-10-9-9-7-7-2-2---2-2-3-5-5-5-5-5-5-5-5------| |
B|--3---3-3-------------------------------------------------------| |
G|----------------------------------------------------------------| |
D|----------------------------------------------------------------| |
A|----------------------------------------------------------------| |
E|----------------------------------------------------------------| |
|
e|--10-10-10-10-10-10-10-10-10-10-9-9-7-7-2-2-3-5-5-5-5-5-5-5-5---| |
B|----------------------------------------------------------------| |
G|----------------------------------------------------------------| |
D|----------------------------------------------------------------| |
A|----------------------------------------------------------------| |
E|----------------------------------------------------------------| |
|
e|--10-10-10-10-10-10-10-10-10-10---------------------------------| |
B|----------------------------------------------------------------| |
G|----------------------------------------------------------------| |
D|----------------------------------------------------------------| |
A|----------------------------------------------------------------| |
E|----------------------------------------------------------------| |
--------------------------------------------------------------------O

D G D G
Toma el camino más largo
D G A
por ahí me encontrarás
D G D G
descansando entre los prados
D G A
a la orilla del maizal

--------------------------------------------------------------------O
Estribillo Cble: |
|
D G D G |
No hay como amar y ser amado |
D G A |
es la cosa más feliz que hay |
|
D G D G |
No hay como amar y ser amado |
D G A |
es la cosa más feliz que hay |
|
D G D G |
No hay como amar y ser amado |
D G A |
es la cosa más feliz que hay |
|
D G D G |
No hay como amar y ser amado |
D G A |
es la cosa más feliz que hay |
--------------------------------------------------------------------O

--------------------------------------------------------------------O
Este final es con violín, pero lo pueden hacer con la guitarra |
también: |
|
e|--------------------| |
B|--7--8--10--8--3~---| |
G|--------------------| |
D|--------------------| |
A|--------------------| |
E|--------------------| |
--------------------------------------------------------------------O

Cierre con D

--------------------------------------------------------------------O
Formas recomendadas para los acordes |
|
E A D G B E |
|
D: x x 0 2 3 2 |
|
G: 3 2 0 0 0 3 |
|
A: x 0 2 2 2 0 |
--------------------------------------------------------------------O