Luces

Los Babasónicos

Genero:

Tablatura

Intro:

e|----------------------------------------------|
B|----------------------------------------------|
G|----------------------------------------------|x2
D|--2--2--2--0---------------0-----2-0----------|
A|-------------2---------0-2-----------2--------|
E|---------------(0)---------------------(0)----|

Verso:


e|-----------------------------------------------------|
B|-----------------------------------------------------|
G|-----------------------------------------------------|
D|----2---2---2---0-----------------0-----2-0----------|
A|------------------2-----------0-2-----------2--------|
E|--------------------(0)-----------------------(0)----|
No se que son esas luces no se que me hablan de rocanrol


e|-----------------------------------------------------|
B|-----------------------------------------------------|
G|-----------------------------------------------------|
D|----2---2---2---0-----------------0-----2-0----------|
A|------------------2-----------0-2-----------2--------|
E|--------------------(0)-----------------------(0)----|
esa impostura barata es solo farsa e imitacion


Estribillo:


e|----------------------------------|
B|----------------------------------|
G|----------------------------------|
D|--2--2--2--0--2---2--2--2--0--2---|
A|----------------------------------|
E|----------------------------------|
E5 E5
saquense caretas cayense profetas

e|----------------------------------|
B|----------------------------------|
G|----------------------------------|
D|--7--7--7--5--7---5--5--5--3--5---|
A|----------------------------------|
E|----------------------------------|
A5 G5
oigan a un cometa gritar

e|-------------------------------------------------------------------|
B|-------------------------------------------------------------------|
G|-------------------------------------------------------------------|
D|--2--2--2--0--2---2--2--2--0--2----7--7--7--5--7---5--5--5--3--5---|
A|-------------------------------------------------------------------|
E|-------------------------------------------------------------------|
E5 E5 A5 G5
arrogante rock uhhhh uhhhh


Intermedio:
e|----------------------------------------------|
B|----------------------------------------------|
G|----------------------------------------------|x2
D|--2--2--2--0---------------0-----2-0----------|
A|-------------2---------0-2-----------2--------|
E|---------------(0)---------------------(0)----|

Verso:

e|-----------------------------------------------------|
B|-----------------------------------------------------|
G|-----------------------------------------------------|
D|----2---2---2---0-----------------0-----2-0----------|
A|------------------2-----------0-2-----------2--------|
E|--------------------(0)-----------------------(0)----|
me puse bien en las luces y solo pienso que quiero mas


e|-----------------------------------------------------|
B|-----------------------------------------------------|
G|-----------------------------------------------------|
D|----2---2---2---0-----------------0-----2-0----------|
A|------------------2-----------0-2-----------2--------|
E|--------------------(0)-----------------------(0)----|
me dicen que estas al punto que no me hablo de velocidad


Estribillo:

e|----------------------------------|
B|----------------------------------|
G|----------------------------------|
D|--2--2--2--0--2---2--2--2--0--2---|
A|----------------------------------|
E|----------------------------------|
E5 E5
saquense caretas cayense profetas

e|----------------------------------|
B|----------------------------------|
G|----------------------------------|
D|--7--7--7--5--7---5--5--5--3--5---|
A|----------------------------------|
E|----------------------------------|
A5 G5
oigan a un cometa gritar

e|-------------------------------------------------------------------|
B|-------------------------------------------------------------------|
G|-------------------------------------------------------------------|
D|--2--2--2--0--2---2--2--2--0--2----7--7--7--5--7---5--5--5--3--5---|
A|-------------------------------------------------------------------|
E|-------------------------------------------------------------------|
E5 E5 A5 G5
arrogante rock uhhhh uhhhh


e|----------------------------------|
B|----------------------------------|
G|----------------------------------|
D|--2--2--2--0--2---2--2--2--0--2---|
A|----------------------------------|
E|----------------------------------|
E5 E5
saquense caretas cayense profetas

e|----------------------------------|
B|----------------------------------|
G|----------------------------------|
D|--7--7--7--5--7---5--5--5--3--5---|
A|----------------------------------|
E|----------------------------------|
A5 G5
oigan a un cometa gritar

e|-------------------------------------------------------------------|
B|-------------------------------------------------------------------|
G|-------------------------------------------------------------------|
D|--2--2--2--0--2---2--2--2--0--2----7--7--7--5--7---5--5--5--3--5---|
A|-------------------------------------------------------------------|
E|-------------------------------------------------------------------|
E5 E5 A5 G5
arrogante rock uhhhh uhhhh


e|-------------------------------------------------------------------|
B|-------------------------------------------------------------------|
G|-------------------------------------------------------------------|
D|--2--2--2--0--2---2--2--2--0--2----7--7--7--5--7---5--5--5--3--5---|
A|-------------------------------------------------------------------|
E|-------------------------------------------------------------------|
E5 E5 A5 G5
arrogante rock uhhhh uhhhh


Intermedio:

e|----------------------------------------------|
B|----------------------------------------------|
G|----------------------------------------------|x2 (Con un
D|--2--2--2--0---------------0-----2-0----------| punteo de fondo)
A|-------------2---------0-2-----------2--------|
E|---------------(0)---------------------(0)----|


Verso:

Pm------------------------------------------------------------

e|--------------------------------------------------------------|
B|--------------------------------------------------------------|
G|--------------------------------------------------------------|
D|--------------------------------------------------------------|
A|--------------------------------------------------------------|
E|--0-3-0-3-0-3--0--3-0-3-0-(3)-----0-3-0-3-0-3--0--3-0-3-0-(3)-|
E5
cagon cagon cagon te vas de luces cagon cagon cagon


Pm------------------------------------------------------------

e|--------------------------------------------------------------|
B|--------------------------------------------------------------|
G|--------------------------------------------------------------|
D|--------------------------------------------------------------|
A|--------------------------------------------------------------|
E|--0-3-0-3-0-3--0--3-0-3-0-(3)-----0-3-0-3-0-3--0--3-0-3-0-(3)-|
E5
cagon cagon cagon te vas de luces cagon cagon cagon



e|---------------------------------------|
B|---------------------------------------|
G|---------------------------------------|x4
D|---------------------------------------|
A|--2-----------------2------------------|
E|--0--3--0--3--0--3--0--3--0--3--0--(3)-|
| /
|_______________/_______
_________________________/ |
/ |
Esta nota no dura mucho pero dura mas que esta
cualquier cosa escuchen el tema se escucha bien claro.



Estribillo:

e|----------------------------------|
B|----------------------------------|
G|----------------------------------|
D|--2--2--2--0--2---2--2--2--0--2---|
A|----------------------------------|
E|----------------------------------|
E5 E5
saquense caretas cayense profetas

e|----------------------------------|
B|----------------------------------|
G|----------------------------------|
D|--7--7--7--5--7---5--5--5--3--5---|
A|----------------------------------|
E|----------------------------------|
A5 G5
oigan a un cometa gritar

e|-------------------------------------------------------------------|
B|-------------------------------------------------------------------|
G|-------------------------------------------------------------------|
D|--2--2--2--0--2---2--2--2--0--2----7--7--7--5--7---5--5--5--3--5---|
A|-------------------------------------------------------------------|
E|-------------------------------------------------------------------|
E5 E5 A5 G5
arrogante rock uhhhh uhhhh


e|-------------------------------------------------------------------|
B|-------------------------------------------------------------------|
G|-------------------------------------------------------------------|
D|--2--2--2--0--2---2--2--2--0--2----7--7--7--5--7---5--5--5--3--5---|
A|-------------------------------------------------------------------|
E|-------------------------------------------------------------------|
E5 E5 A5 G5
arrogante rock uhhhh uhhhh


e|----------------------------------|
B|----------------------------------|
G|----------------------------------|
D|--2--2--2--0--2---2--2--2--0--2---|
A|----------------------------------|
E|----------------------------------|
E5 E5
saquense caretas cayense profetas

e|----------------------------------|
B|----------------------------------|
G|----------------------------------|
D|--7--7--7--5--7---5--5--5--3--5---|
A|----------------------------------|
E|----------------------------------|
A5 G5
oigan a un cometa gritar

e|-------------------------------------------------------------------|
B|-------------------------------------------------------------------|
G|-------------------------------------------------------------------|
D|--2--2--2--0--2---2--2--2--0--2----7--7--7--5--7---5--5--5--3--5---|
A|-------------------------------------------------------------------|
E|-------------------------------------------------------------------|
E5 E5 A5 G5
arrogante rock uhhhh uhhhh


e|-------------------------------------------------------------------|
B|-------------------------------------------------------------------|
G|-------------------------------------------------------------------|
D|--2--2--2--0--2---2--2--2--0--2----7--7--7--5--7---5--5--5--3--5---|
A|-------------------------------------------------------------------|
E|-------------------------------------------------------------------|
E5 E5 A5 G5
arrogante rock uhhhh uhhhh


e|-------------------------------------------------------------------|
B|-------------------------------------------------------------------|
G|-------------------------------------------------------------------|
D|--2--2--2--0--2---2--2--2--0--2----7--7--7--5--7---5--5--5--3--5---|
A|-------------------------------------------------------------------|
E|-------------------------------------------------------------------|
E5 E5 A5 G5
arrogante rock uhhhh uhhhh


Final:

e|-------------------------|
B|-------------------------|
G|-------------------------|
D|--2--2--2--0-------------|
A|-------------2-----------|
E|----------------(0)------|