Estoy Rabioso

Los Babasónicos

Genero:

Tablatura

Pude sacar uno de los mejores temas de Mucho. Tóquenlo con las
formas de los acordes que recomiendo al final.
Cualquier duda o sugerencia envíenla a mi mail.

VERSIÓN ACTUALIZADA: Hoy saqué el tema Todo dicho, que usa acordes
en quinta, y se me ocurrió utilizar acordes en quinta en este tema
también. Al final quedó mejor, así que los modifiqué a todos. Además
cambié los de la intro por un punteo, créditos por él a la
transcripción de Eduardo Muros Tovar.

--------------------------------------------------------------------O
Punteo inicial: |
|
e|----------------------------------------| |
B|----------------------------------------| |
G|----------------------------------------| x3 |
D|--4-4--3-3--2-2-------------------------| |
A|-----------------2-2--------------------| |
E|----------------------2-2-2--2-2--2-2---| |
|
e|----------------------------------------| |
B|----------------------------------------| |
G|----------------------------------------| |
D|--4-4--3-3--2-2-------------------------| |
A|-----------------2-2--------------------| |
E|----------------------2-----------------| |
|
--------------------------------------------------------------------O

E5 F#5 B5
Todo bien con el diablo, sólo somos amigos
C#5 A5 G#5
es que anduve negociando algo con él
E5 F#5 B5
y como del intercambio salí vivo
A5 F#5
me la voy a festejar hasta que me alcancé la ley

E5 F#5 B5
A la mierda lo que piensen de nosotros
E5 F#5 E5
a la mierda lo que digan los demás

--------------------------------------------------------------------O
Estribillo: |
|
F#5 |
Voy a escupirte entre los ojos |
E5 B5 |
te vaticino un futuro cojo y no vuelvo atrás |
C#5 A5 |
porque estoy rabioso |
|
F#5 |
Voy a escupirte entre los ojos |
E5 B5 |
te vaticino un futuro rojo y no vuelvo atrás |
C#5 |
porque estoy rabioso |
--------------------------------------------------------------------O

--------------------------------------------------------------------O
Punteo inicial modificado: |
|
e|----------------------------------------| |
B|----------------------------------------| |
G|----------------------------------------| |
D|--4-4--3-3--2-2-------------------------| |
A|-----------------2-2--------------------| |
E|----------------------2-2-2--2-2--2-2---| |
|
e|----------------------------------------| |
B|----------------------------------------| |
G|----------------------------------------| |
D|--4-4--3-3--2-2-------------------------| |
A|-----------------2-2--------------------| |
E|----------------------2-----------------| |
|
--------------------------------------------------------------------O

E5 F#5 B5
Quiero que mi delirio sea bien aceptado
C#5 A5 G#5
tengo planes y persigo una visión
E5 F#5 B5
y a cualquiera que me llame improvisado
A5 F#5
yo lo reto a estar parado en mis zapatos sin temblar

E5 F#5 B5
A la mierda lo que piensen de nosotros
E5 F#5 E5
a la mierda lo que digan los demás

--------------------------------------------------------------------O
Estribillo: |
|
F#5 |
Voy a escupirte entre los ojos |
E5 B5 |
te vaticino un futuro cojo y no vuelvo atrás |
C#5 A5 |
porque estoy rabioso |
|
F#5 |
Voy a escupirte entre los ojos |
E5 B5 |
te vaticino un futuro rojo y no vuelvo atrás |
C#5 |
porque estoy rabioso |
--------------------------------------------------------------------O

--------------------------------------------------------------------O
Punteo inicial modificado: |
|
e|----------------------------------------| |
B|----------------------------------------| |
G|----------------------------------------| |
D|--4-4--3-3--2-2-------------------------| |
A|-----------------2-2--------------------| |
E|----------------------2-2-2--2-2--2-2---| |
|
e|----------------------------------------| |
B|----------------------------------------| |
G|----------------------------------------| |
D|--4-4--3-3--2-2-------------------------| |
A|-----------------2-2--------------------| |
E|----------------------2-----------------| |
|
--------------------------------------------------------------------O

--------------------------------------------------------------------O
Acordes que acompañan el solo: E5 F#5 |
|
F#5 E5 |
|
E5 F#5 |
|
E5 |
--------------------------------------------------------------------O

--------------------------------------------------------------------O
Estribillo: |
|
F#5 |
Voy a escupirte entre los ojos |
E5 B5 |
te vaticino un futuro cojo y no vuelvo atrás |
C#5 A5 |
porque estoy rabioso |
|
F#5 |
Voy a escupirte entre los ojos |
E5 B5 |
te vaticino un futuro rojo y no vuelvo atrás |
C#5 |
porque estoy rabioso |
--------------------------------------------------------------------O

--------------------------------------------------------------------O
Punteo inicial modificado: |
|
e|----------------------------------------| |
B|----------------------------------------| |
G|----------------------------------------| |
D|--4-4--3-3--2-2-------------------------| |
A|-----------------2-2--------------------| |
E|----------------------2-2-2--2-2--2-2---| |
|
e|----------------------------------------| |
B|----------------------------------------| |
G|----------------------------------------| |
D|--4-4--3-3--2-2-------------------------| |
A|-----------------2-2--------------------| |
E|----------------------2-----------------| |
|
--------------------------------------------------------------------O

--------------------------------------------------------------------O
Formas recomendadas para los acordes |
|
E A D G B E |
|
E5 : 0 2 2 x x x |
|
F#5: 2 4 4 x x x |
|
B5 : 7 9 9 x x x |
|
C#5: 9 11 11 x x x |
|
A5 : 5 7 7 x x x |
|
G#5: 4 6 6 x x x |
--------------------------------------------------------------------O