El Médium

Los Babasónicos

Genero:

Tablatura

E-------------------------------------->
b-------------------------------------->
g-------------------------------------->
D-------------------------------------->
A----0--7-7--6-6--5-------------------->
E-------------------5-8--5-8--5-------->

A5 G5
Voluptuosa pitonisa acercándose
A5 G5
desperté en otro tiempo y extraño entenderlo


Em D C
no perteneces

Em D C
a esta moral

Em D C
sos del mas allá

Em D C
de ningún lugar

A5
Desnuden
G5
la humanidad
A5
Desnuden
G5
su intensidad
A5
Saturen
G5
de relajación
A5
Desnuden
G5
y suelten la cosa real





Sexplotado por muñeca del vicio
riego la arena infertil y extraño entender

no perteneces
a esta moral
sos del mas allá
de ningún lugar

Desnuden
A humanidad
Desnuden
su intensidad
Saturen
de relajación
Desnuden
y suelten la cosa real

no perteneces
a esta moral
sos del mas allá
de ningún lugar

Final:
E-------------------------------------->
b-------------------------------------->
g-------------------------------------->
D-----------------------------7-------->
A----0--7-7--6-6--5-----------7-------->
E-------------------5-8--5-8--5-------->