Desfachatados

Los Babasónicos

Genero:

Tablatura

Bueno, ahi va este tema, falta el solo, si alguien lo saca
mandelo, espero que les guste.

D|-2~-5-4p2h5-| Riff 1

E|----------------|
B|---3------------|
G|-----2p0--------| Riff 2
D|-0-------3-0----|
A|-------------3--|
E|----------------|



Intro

E|----------------------2s4h5-|
B|----------------------4s5~--|
G|----------------------------| x2 E |-7bh0-|
D|-2-4h5-2-4h5-2-4h5p2~-------|
A|----------------------------|
E|----------------------------|

E|------------------------|
B|---0-0-0-0-0-0----------| x4
G|----4---4---4----4------|
D|--2-------------2-------|

D|-2-0-----------|
A|-----4-2-0-----| x5
E|-----------4-2-|


Em A
Un puñal de hombres pasados de ponche
G F
se festejan a la mexicana
Em A
destrozando a su paso moteles y bares
G F
cuesta abajo no les cuesta nada.

E G F Em
Habran la frontera,la estampida va a llegar Riff 1
E G F Em
levantando polvo vienen los desfachatados.
E G F Em
Vienen dando tumbos, viven fuera de la ley Riff 2
E G F Em
alma de cantina traen los desfachatados.


E|------------------------|
B|---0-0-0-0-0-0----------| x2 Rapido
G|----4---4---4----4------|
D|--2-------------2-------|

E|------------------------|
B|---0-0-0-0-0-0----------| x1
G|----4---4---4----4------|
D|--2-------------2-------|



A partir de aca lleva la misma progresion


Un enjambre de muchachas
guapas, chulas, guapas,
ponen hot un mini mercado
en la ruta hacia El Paso
van dando sablazos
en un carro tomado prestado.

Abran la frontera la estampida veo llegar,
levantando polvo vienen los desfachatados
vienen dando tumbos viven fuera de la ley
alma de cantina traen los desfachatados.
Te robo, te mato te limpio.
Te robo, te mato, te limpio.
Te robo, te mato, te limpio, te mato, te limpio, te mato.

Un enjambre de muchachas
guapas, chulas, guapas,
ponen hot un mini mercado
en la ruta hacia El Paso
van dando sablazos
en un carro tomado prestado


Abran la frontera la estampida veo llegar,
levantando polvo vienen los desfachatados
vienen dando tumbos viven fuera de la ley
alma de cantina traen los desfachatados