Confundismo

Los Babasónicos

Genero:

Tablatura

Como ven el intro usa una nota semejante a un Do, por eso se
ven muchos 3 2 1.. Si vieron a Mariano tocar solo hace notas
simples y juega mucho con esas notas. Para su facilidad Pisen
la nota do y sigan el punteo segun su oido.

Tab del intro
e|-------3---------------3----------------3
B|-------3---------------3----------------3
G|-------3---------------3--5/7-5---------3
D|--- 3--5--3-2-2-----3--5-------------3--5
A|-3/5---5-------3-3/5---5--------3-3/5---5
E|-----3-3-------------3-3--------------3-3

-----------------3----------------------------|
-----------------3--5/7-5---------------------|
-----------------3-------------3--------------|
-3-2-2-------3---5--------3-3/5---------------|
-------3-3-5-----5----------------------------|
---------------3-3--------------3-------------|

B*

e| 1
B| 3
G| 3
D| 3
A| 1
E| 1

Gm B* C
Todos saben que te quiero
F
No tengo suerte,
B* C
tengo malos deseos.

Todos saben que te quiero
Que lo haré de todas formas,
y lo haré a cualquier precio.

Dm7 B*
Predico a toda costa un confundismo feo
C Am7
(Mientras no sueltes mi mano)
B* C
Que el vació nos devora.

ESTRIBILLO
Gm B* C
Cuando el viento cobra
Gm
Yo le pago en besos
B* C
Siento tus labios en mis labios.

Cuando el viento cobra
Yo le pago en besos
Gm
Siento tus labios en mis labios morir.



Todos saben que te quiero
Que he cruzado descalzo
los salares en invierno.

Todos saben que te quiero
He tomado la planta
he resuelto el misterio.

Practico convencerme con un vicio nuevo
(Mientras no sueltes mi mano)
Que el vacío nos devora.

Cuando el viento cobra
Yo le pago en besos
Siento tus labios en mis labios.

Cuando el viento cobra
Yo le pago en besos
Siento tus labios en mis labios morir.

Cuando el viento cobra
Yo le pago en besos
Siento tus labios en mis labios.

Cuando el viento cobra
Yo le pago en besos
Siento tus labios en mis labios morir.

Gm B* C Gm
Siento tus labios en mis labios morir
Siento tus labios en mis labios morir
Siento tus labios en mis labios morir