Combustible

Los Babasónicos

Genero:

Tablatura

Am
Las noches son mías,
A
las casas vacías,
G
mi especialidad, -LA SEGUNDA VEZ QUE LO REPITE SE TOCA Lam

Am
tesoros reviento,
A
mal gano mal vendo,
G
reduzco el botín
A
y lo convierto en cash,

F#m A D
quemo el dinero, ando buscando...
D A D
tu calidad, ando buscando
D
la alegría que me falta,
A alegría,

fisura la noche,
suburbio de roche,
llegó nuestra hora la oportunidad,
un auto encendido,
trabajo servido,
octanos que el vicio me hace quemar,

quemo el dinero, quemo el dinero,
ando buscando...
tu calidad, ando buscando...
la alegría que me falta, la alegría,

necesito gas para seguir,
todos es combustible para mí,
otra noche más,
necesito gas para seguir,
ando buscando...
ando buscando...
ando buscando...
tu calidad, ando buscando...
la alegría que me falta,
la alegría.




<-----------------
band;A;qbo
rola;Lo que tus sueños cuentan;T
comp;
albm;qbo;2003
tran;25119;Hugo Dantes;S
petz;0;nada
<-----------------
No he intentado la otra transcripcion pero parece sonar, pero la afinacion
es distinta. aqui les va con la afinacion que tonio usa(BEADF#b)
intentela suena bien, ya saben adonde escribir por alguna duda o comentario.
por lo pronto estoy trabajando en otras canciones de ellos y luego se las mando.


intro

b |-15-14----14-12----12----15-14----14-12----12----10----------|
F#|-------15-------12-12----------15-------12-12-10-10----------|
A |-------------------------------------------------------------|
D |-------------------------------------------------------------|
E |-------------------------------------------------------------|
B |-------------------------------------------------------------|

b |-------------------------------------------------------------|
F#|-------------------------------------------------------------|
A |-------------------------------------------------------------|
D |-------------------------------------------------------------|
E |-------------------------------------------------------------|
B |-3-0-0-2--0-0-0-2--0-0-5--0-0-0-2--0-0-3--0-0-0-2--0-1-1-----|

b |-------------------------------------------------------------------|
F#|-------------------------------------------------------------------|
A |-------------------------------------------------------------------|
D |-------------------------------------------------------------------|
E |-------------------------------------------------------------------|
B |-0-0-0-2--0-0-0-3--0-0-0-2--0-0-5--0-0-0-2--0-0-3--0-0-0-2-0-0-1-0-|


VERSO
P.M.------------------------------------------
b |-------------------------------------------------------------------|
F#|-------------------------------------------------------------------|
A |-------------------------------------------------------------------|
D |-------------------------------------------------------------------|
E |-------------------------------------------------------------------|
B |-0-0-2-0---0-1-1-0---0-0-2-0---0-3-3-0---1-1-0---------------------|

b |-------------------------------------------------------------------|
F#|-------------------------------------------------------------------|
A |-------------------------------------------------------------------|
D |-------------------------------------------------------------------|
E |-------------------------------------------------------------------|
B |-0-0-2-0---0-1-1-0---8-8-X-8---X-7-7-7---X-5-5-5-------------------|


CORO (NO ESTOY SEGURO SI SON DOS GUITARRAS AQUI)

b |-----3---------------------3---------3-----------------------------|
F#|---3---3---------6-------3---3-----3---3---------------------------|
A |---------------5---5-----------------------------------------------|
D |-2-----------7---------5---------2---------------------------------|
E |-2-----------5---------3---------0---------------------------------|
B |-0-----------------------------------------------------------------|



DESPUES DE CORO
P.M X2 X3
b |---------|---------|--------------|-----------------------------------|
F#|---------|---------|--------------|-----------------------------------|
A |---------|---------|--------------|-----------------------------------|
D |----2----|-2-2-5---|--2-2-XX-5----|-2-2-5-----------------------------|
E |----2----|-2-2-5---|--2-2-XX-5----|-2-2-5-----------------------------|
B |-0--0----|-0-0-3---|--0-0-XX-3----|-0-0-3-----------------------------|


SOLO



b |-15-14----12------15-14-----12---------10--15-14----17-------|
F#|-------15----12---------15-----12---10-----------15----17----|
A |-------------------------------------------------------------|
D |-------------------------------------------------------------|
E |-------------------------------------------------------------|
B |-------------------------------------------------------------|

b |-17/19/17----------------17----17-------17-------17----------|
F#|-17/19/17---17/19/17/15-----15----15-14----14-15-------------|
A |-------------------------------------------------------------|
D |-------------------------------------------------------------|
E |-------------------------------------------------------------|
B |-------------------------------------------------------------|


FINAL
P.M
b |-------|
F#|-------|
A |-------|
D |-------|
E |-----2-|
B |-0---0-|




Bueno eso es todo lo que se toca Y ustedes lo ordenan. ojala que les sirva de algo.
saludos para otay tijuana. para el Alex y el Patrick\'gotta have tha bass\'Dantes