Chupa Gas

Los Babasónicos

Genero:

Tablatura

CHUPA GAS

E--0----------------------------------
B--1----1--------------3----------2---
G--0------0----------0----------0-----
D--2--------2------4----------2-------
A--3-------------5----------4---------
E-------------------------------------
Nerón, chupa gas, chupa gas

E--0----------------------------------
B--1-------------------3--------------
G--0-----------------0----------------
D--2---------------4------------------
A--3-------------5--------------------
E-------------------------------------
Nerón, chupa gas...

E--------------------------------------
B--------1-------------3----------2----
G------0-------------0----------0------
D----2-------------4----------3--------
A--3-------------5----------4----------
E-------------------------------------
Nerón, chupa gas, chupa gas

E--0-----------------------------------------------
B--1-------------------3---------------------------
G--0-----------------0-----------------------------
D--2---------------4-------------------------------
A--3-------------5---------------------------------
E----------------------------0--3--5--7--5--3-------
Nerón, chupa gas...


Em Am
un sin don,
C Em
a parido la tierra,
Am
él es dios,
C Em
hasta que pisa la tierra
Am C Em
y al mirar cose luces de seda
Am
al confiar
C Em .
no hay, quien lo proteja

E--------------------------------------
B--------1-------------3----------2----
G------0-------------0----------0------
D----2-------------4----------3--------
A--3-------------5----------4----------
E-------------------------------------
Nerón, chupa gas, chupa gas

E--------------------------
B--------1-------------3---
G------0-------------0-----
D----2-------------4-------
A--3-------------5---------
E--------------------------
Nerón, chupa gas

E--------------------------------------
B--------1-------------3----------2----
G------0-------------0----------0------
D----2-------------4----------3--------
A--3-------------5----------4----------
E-------------------------------------

Nerón, chupa gas, chupa gas

E----------------------------------------------
B--------1-------------3-----------------------
G------0-------------0-------------------------
D----2-------------4---------------------------
A--3-------------5-----------------------------
E----------------------------0--3--5--7--5--3--
Nerón, chupa gas...

Em Am
un sin don
C Em
ha parido la tierra
Am
él es dios
C Em
y a los hombres aferra
Am C Em
un millón mas de datos maneja
Am
y al confiar
C Em .
ha perdido la guerra.

Punteo

E-----------------------------------------------------
B-----------------------------------------------------
G-----0-------0-------0----2----3----2---0---2--0-----
D-0/2----0/2-----0/2-------------------------------2--
A-----------------------------------------------------
E-----------------------------------------------------

indomito, salvaje, desbocado
la anarquia de los vientos
la abstraccion del abismo
soy libre y escapo a la caida
con mi grito glaciar
escribo la tierra
y el maquillaje de tundra
alivia mi cara atomica