Le Sud

L'indécis

Genero:

Tablatura

[tab][Chords used]
e|---x----x---x---x-|
B|---10---8---8---7-|
G|---9----7---7---7-|
D|---10---9---9---7-|
A|---9----x---7---7-|
E|---x----7---x---x-|[/tab]

[tab][Intro]
e|------------x-----------x-----------x---------x-------x-------|
B|-------10---x-------8---x-------8---x---7h8---x---8---x---8---|
G|-------9----x-------7---x-------7---x---7-----x---7---x---7---|
D|-------10---x-------9---x-------9---x---7h9---x---9---x---9---|
A|---9--------x-----------x---7-------x---7-----x---7---x---7---|
E|------------x---7-------x-----------x---------x-------x-------|[/tab]

[tab]e|------------x-----------x-------------x-------x-------|
B|-------10---x-------8---x---7---7h8---x---8---x---8---|
G|-------9----x-------7---x---7---7-----x---7---x---7---|
D|-------10---x-------9---x---7---7h9---x---9---x---9---|
A|---9--------x-----------x---7---7-----x---7---x---7---|
E|------------x---7-------x-------------x-------x-------|[/tab]

(The x chords are palm slaps on the strings)

************************************

| x Dead note
| h Hammer-on

************************************