Todo Es Perfecto

L.b.e.

Genero:

Tablatura

PARA TODOS AQUELLOS QUE ANHELABAN SACAR EL PUNTEO DE ESTA GRAN
CANCION...PUES AQUÍ LES VA:


La introduccion es así:

E:--------------------------:---------8-------8--10-8---:
B:--------------------------:-9-10-12---10-12--------12-:
G:------9-7-9--7-9-7----7-5-:---------------------------:
D:-7-10--9---10------10-----:---------------------------:
A:--------------------------:---------------------------:
E:--------------------------:---------------------------:

E:------8-10---8-10---8------:
B:-10-12-----12----12--10-10-:
G:---------------------------:
D:---------------------------:
A:---------------------------:
E:---------------------------:

E:---------------------------:---------8-------8--10-8---:
B:---------------------------:-9-10-12---10-12--------12-:
G:------9-7-9--7-9-7----7-5--:---------------------------:
D:-7-10--9---10------10------:---------------------------:
A:---------------------------:---------------------------:
E:---------------------------:---------------------------:

E:------8-12-10-8--8---------:
B:-10-12---------12--10-10-10:
G:---------------------------:
D:---------------------------:
A:---------------------------:
E:---------------------------:

DESPUÉS DEL PRIMER CORO VIENE LO SIGUIENTE:

E:-------------------------------:-----------------------------------:
B:-------------------------------:-----------------------------------:
G:-9-9-9-7-12------7-7-7---9-7---:-----------------7-7---------------:
D:------------9-10------10-----10:-9-10-10-10-10-9----9-10-9-7--7-9-7:
A:-------------------------------:-----------------------------9-----:
E:-------------------------------:-----------------------------------:

E:---------8------8---------8-10--8-10-:--------8------8--10-8---:
B:-9-10-12---10-12-----10-12----12-----:-9-10-12--10-12-------12-:
G:-------------------------------------:-------------------------:
D:-------------------------------------:-------------------------:
A:-------------------------------------:-------------------------:
E:-------------------------------------:-------------------------:

E:------8-10-8-----8-------------------:
B:-10-12------12-10-12-10-9-10-10-10---:
G:-------------------------------------: Esta parte es rapida
D:-------------------------------------:
A:-------------------------------------:
E:-------------------------------------:


Veran..una vez escuchan la canción y siguen esta tabla, les saldrá
identica...saludos...

cualquier error o sugerencia sobre éste punteo en especial, mi correo
es: david_andres144@homail.com

SALUDOS A LA IGLESIA ANTIOQUIA II (SANTA CRUZ DE LA SIERRA-BOLIVIA)
A MIS COMPAÑEROS DEL MINISTERIO DE ALABANZAS YHONNY, GABRIEL, CARLOS,
LOIDA, JAEL Y YHENNY...