Dame Más

L.b.e.

Genero:

Tablatura

INTRO:

E --------------------------5--3----------------------------5--3--
A --5-6-7--5-6-7--5-6-7-----7--5-----5-6-7--5-6-7--5-6-7----7--5--

--7--
--9--




E G
Dame más, para mi alma
C A
Dame unción, que no se acaba
E G
Dame amor, que es lo que falta
C A
Dame la victoria antes que caiga el sol


E G
Dame más, para mi alma
C A
Dame unción, que no se acaba
E G
Dame amor, que es lo que falta
C A
Dame la victoria antes que caiga el sol


E --------------------------5--3----
A --5-6-7--5-6-7--5-6-7-----7--5----

----------------------------5--3--
-----5-6-7--5-6-7--5-6-7----7--5--




E
Una vez mas en el campo de batalla
A
el enemigo espera una falla
E
Muchos se caen pero yo no lo hago
G A
levanto bandera porque el me acompaña
E
Yo se muy bien que hay varios del otro lado
A
pero también se quien está de mi lado
E
Voy a quedarme a ganar esta guerra
G A
solo por vos doy la vida entera



E G
Dame más, para mi alma
C A
Dame unción, que no se acaba
E G
Dame amor, que es lo que falta
C A
Dame la victoria antes que caiga el sol


E G
Dame más, para mi alma
C A
Dame unción, que no se acaba
E G
Dame amor, que es lo que falta
C A
Dame la victoria antes que caiga el sol




E --------------------------5--3---------------------------
A --5-6-7--5-6-7--5-6-7-----7--5-----5-6-7--5-6-7--5-6-7---
D ---------------------------------------------------------

-----------------
------7---7------
--7-5---5---5-7--




E --------------------------5--3----------------------------5--3---
A --5-6-7--5-6-7--5-6-7-----7--5-----5-6-7--5-6-7--5-6-7----7--5---
D -----------------------------------------------------------------

--7--
--9--
--9--



E
Estoy acá y de acá nadie me mueve
A
si estoy contigo, conmigo nadie puede
E
Ya entendi que sos el mejor en esto
G A
nadie te hace frente, nadie nadie puede
E
Yo se muy bien que hay varios del otro lado
A
pero tambien se quien esta de mi lado
E
Voy a quedarme a ganar esta guerra
G A
solo por vos doy la vida entera


E G
Dame más, para mi alma
C A
Dame unción, que no se acaba
E G
Dame amor, que es lo que falta
C A
Dame la victoria antes que caiga el sol


E G
Dame más, para mi alma
C A
Dame unción, que no se acaba
E G
Dame amor, que es lo que falta
C A B
Dame la victoria antes que caiga el sol