Punkies De Plastiko

Las Vulpess

Genero:

Tablatura

punkies  de plastico
corregida


|-------------------------------|
|-------------------------------|
|---------------------11p-13-11-|
|-----4p-6-4-----9--------------|
|-2-----------------------------|
|-------------------------------|

|--------------------|
|--12b---------12bx--|
|------9b--x4--------|
|--------------------|
|--------------------|
|--------------------|

|--------|
|--12bx--|
|--------|
|--------|
|--------|
|--------|
(se jala ligeramente la cuerda hacia abajo)
guitar 2
|---------------------|
|---------------------|
|------9---7----------|
|--7---9---7---9------| x2
|--7---7---5---9------|
|--5-----------7------|

verso


|---------------------|
|---------------------|
|------9---7----------|
|--7---9---7---9------| x2
|--7---7---5---9------|
|--5-----------7------|
punkis de plastico vais a morir
vuestra modita moderna pronto va a sucumbir

|---------------------------------|
|---------------------------------|
|---------9-------7---------------|
|-7-------9-------7-------9-------| x2
|-7-------7-77777-5-55555-9-------|
|-5-55555-----------------7-77777-|
pm ***** ***** ***** *****

vuestra mama nos comprara mas ropita de cuero
y los pelos os teñiran con tanto esmero

coro

|------------------|
|------------------|
|-44/55/66/77------|
|-44/55/66/77-x4---|
|-22/33/44/55------|
|------------------|

solo mundo plastico
solo mundo plastico
solo mundo plastico
solo mundo plastico

solo
|--------------------------------------------|
|--- ------12---------12---------12----------|
|-11-11-11---11-11-11---11-11-11---11-10-11~-|
|--------------------------------------------|
|--------------------------------------------|
|--------------------------------------------|

|--------------------------------------------|
|--- ------12---------12---------12----------|
|-11-11-11---11-11-11---11-11-11---11-13-14~-|
|--------------------------------------------|
|--------------------------------------------|
|--------------------------------------------|

|--------------------------------------------|
|--- ------12---------12---------12----------|
|-11-11-11---11-11-11---11-11-11---11-10-11~-|
|--------------------------------------------|
|--------------------------------------------|
|--------------------------------------------|

|----------------------------------------------------------|
|--- ------13---------13---------13---13-12-10-12-10-------|
|-11-11-11---11-11-11---11-11-11---11----------------12b---|
|----------------------------------------------------------|
|----------------------------------------------------------|
|----------------------------------------------------------|

despues del solo se repite lo mismo en el verso y coro

letra

punkis de plastico vais a morir
vuestra modita moderna pronto va a sucumbir
vuestra mama nos comprara mas ropita de cuero
y los pelos os teñiran con tanto esmero

solo mundo plastico
solo mundo plastico
solo mundo plastico
solo mundo plastico

llevas muchos pinchos crees que la vida es rosa
eres el hijo modelo solo eres una cosa
aparentas algo bueno todo el dia eres falso
hasta los piños que llevas son mundo plastico

solo mundo plastico
solo mundo plastico
solo mundo plastico
solo mundo plastico

punkis de plastico vais a morir
vuestra modita moderna pronto va a sucumbir
vuestra mama nos comprara mas ropita de cuero
y los pelos os teñiran con tanto esmero

solo mundo plastico
solo mundo plastico
solo mundo plastico
solo mundo plastico

by j0z3ar

dudas, comentarios, mentadas de madre..xD
jos_rockr@hotmail.com